Song name
# A B C D E F G H I J K L M N O P Q R S T U V W X Y Z

Misc Unsigned Bands - Give Em Hot Milk - Stupidhead tab

==========
GUITAR 1
==========
INTRO (x4)
e|-----0----|
B|-0------2-|
G|-------2--|
D|----------|
A|---2------|
E|---2------|

VERSE (x2)
e|-----------------------------------------|
B|-----------------------------------------|
G|------------9-9--------------------------|
D|---------11-----0------------5-5-5-5--5b-|
A|-9----9-----------0----------5-5-5-5--5b-|
E|---11----------------5-5-4-4-0-0-0-0--5b-|

PRE CHORUS (x2)
e|-------------------|
B|-------------------|
G|---------0-7-------|
D|-----9-7-----7-----|
A|---9-----------7---|
E|-0---------------5-|

CHORUS (x4)
e|---------------------------------|
B|---------------------------------|
G|---------------------------------|
D|-0-0-0-0-9-9-9-9-2-2-2-2-4-4-4-4-|
A|-0-0-0-0-7-7-7-7-2-2-2-2-4-4-4-4-|
E|-0-0-0-0-7-7-7-7-2-2-2-2-4-4-4-4-|

INTRO (x4)
e|-----0----|
B|-0------2-|
G|-------2--|
D|----------|
A|---2------|
E|---2------|

VERSE (x2)
e|-----------------------------------------|
B|-----------------------------------------|
G|------------9-9--------------------------|
D|---------11-----0------------5-5-5-5--5b-|
A|-9----9-----------0----------5-5-5-5--5b-|
E|---11----------------5-5-4-4-0-0-0-0--5b-|

PRE CHORUS (x2)
e|-------------------|
B|-------------------|
G|---------0-7-------|
D|-----9-7-----7-----|
A|---9-----------7---|
E|-0---------------5-|

CHORUS (x4)
e|---------------------------------|
B|---------------------------------|
G|---------------------------------|
D|-0-0-0-0-9-9-9-9-2-2-2-2-4-4-4-4-|
A|-0-0-0-0-7-7-7-7-2-2-2-2-4-4-4-4-|
E|-0-0-0-0-7-7-7-7-2-2-2-2-4-4-4-4-|

BRIDGE
(REST)

CHORUS (x8)
e|---------------------------------|
B|---------------------------------|
G|---------------------------------|
D|-0-0-0-0-9-9-9-9-2-2-2-2-4-4-4-4-|
A|-0-0-0-0-7-7-7-7-2-2-2-2-4-4-4-4-|
E|-0-0-0-0-7-7-7-7-2-2-2-2-4-4-4-4-|

===============================================
==========
GUITAR 2
==========
INTRO (x4)
e|-0-2------7-5-----------|
B|------2-3-----4-5-4-4-0-|
G|------------------------|
D|------------------------|
A|------------------------|
E|------------------------|

VERSE (x2)
e|--------------------7----------0-|
B|-3-----0-----1----7-0------------|
G|-------7--------5--------------0-|
D|-----9-------0----------6---6----|
A|-2---------7----------8---8------|
E|---0-----3-----------------------|

PRE CHORUS (x2)
e|-------------1---|
B|-9-7-5-4-2h3-1---|
G|-------------3---|
D|---------------3-|
A|---------------1-|
E|---------------1-|

CHORUS (x4)
e|--------------------------0---------|
B|-----------0-0-0----------2---------|
G|-----------0-0-0-1------2-------2---|
D|-----------0-7-5----2---------2---2-|
A|---4-6-7-5------------2-----4-------|
E|-4----------------------------------|

INTRO (x4)
e|-0-2------7-5-----------|
B|------2-3-----4-5-4-4-0-|
G|------------------------|
D|------------------------|
A|------------------------|
E|------------------------|

VERSE (x2)
e|--------------------7----------0-|
B|-3-----0-----1----7-0------------|
G|-------7--------5--------------0-|
D|-----9-------0----------6---6----|
A|-2---------7----------8---8------|
E|---0-----3-----------------------|

PRE CHORUS (x2)
e|-------------1---|
B|-9-7-5-4-2h3-1---|
G|-------------3---|
D|---------------3-|
A|---------------1-|
E|---------------1-|

CHORUS (x4)
e|--------------------------0---------|
B|-----------0-0-0----------2---------|
G|-----------0-0-0-1------2-------2---|
D|-----------0-7-5----2---------2---2-|
A|---4-6-7-5------------2-----4-------|
E|-4----------------------------------|

BRIDGE
e|------------------------------------------------12-13b--------|
B|-2---------------------------------11-11-12-14----------15p14-|
G|---------8h9--------------------16----------------------------|
D|-----4-7---------6-9---------14-------------------------------|
A|-2-4-----------------9-11-12----------------------------------|
E|-------------0h2----------------------------------------------|

e|------------------------21-20--------------17----|
B|-------------------------------20-------9b-------|
G|-17-16-17----12b----14b--------------21----------|
D|----------9b--------14b-----------14----------2~-|
A|-----------------12---------------------------2~-|
E|----------------------------------------------2~-|

CHORUS (x10)
e|--------------------------0---------|
B|-----------0-0-0----------2---------|
G|-----------0-0-0-1------2-------2---|
D|-----------0-7-5----2---------2---2-|
A|---4-6-7-5------------2-----4-------|
E|-4----------------------------------|
Tap to rate this tab
# A B C D E F G H I J K L M N O P Q R S T U V W X Y Z