Guitaretab - guitar tabs
Song name
# A B C D E F G H I J K L M N O P Q R S T U V W X Y Z

Misc Unsigned Bands - Panik Attack - Social System tab

-----------------------------------------------------------------------------
		        Social System - Panik Attack
-----------------------------------------------------------------------------

Tabbed by: Matt Barry
Email: matt_barry182@msn.com

Standard Tuning

    Intro Part 1
E|---------0-----------------0------------------|
b|-----------3---3-------------3---3------------|
g|-----2-------2---2-----2-------2---2----------|
d|---0---0--------------------------------------|
a|---------------------4---4--------------------|
e|----------------------------------------------|


E|---------0-----------------0------------------|
b|-----------3---3-------------3---3------------|
g|-----2-------2---2-----2-------2---2----------|
d|----------------------------------------------|
a|---2---2-------------0---0--------------------|
e|----------------------------------------------|

  Intro Part 2  Guitar 1
E|-----------------------------------------------------|
b|-----------------------------------------------------|
g|----7----4---7-4-7-4-7/9--7----4---7-4-7-4-7/9-------|
d|-----------------------------------------------------|
a|-----------------------------------------------------|
e|-----------------------------------------------------|

E|----------------------------------------------------------|
b|----------------------------------------------------------|
g|----7----4---7-4-7-4-7/99b11-9-7-------7-9-7-9-9b11-9-7--|  x2
d|----------------------------------9-7-9-------------------|
a|----------------------------------------------------------|
e|----------------------------------------------------------|

  Intro part 2  Guitar 2 (you can work out the rhythm)
E|-----------------------------------------------------|
b|-----------------------------------------------------|
g|--7--------------------------------------------------| x2
d|--7----2----5----7-----------------------------------|
a|--5----2----5----7-----------------------------------|
e|-------0----3----5-----------------------------------|

[ Tab from: http://www.guitaretab.com/m/misc-unsigned-bands/76301.html ]
  Verse  Guitar 1
E|------------------------------------------------------------|
b|------------------------------------------------------------|
g|------------------------------------------------------------| x2
d|------------------------------------------------------------|
a|--55--55--5-7-5-------------------7-9-7-5-------------------|
e|----------------7-33-33-3-5-77-77---------55-33-5-3-33-5-3-|

  Verse - Guitar 2
E|-----------------------------------------------------------------|
b|--1515-1515-15-17-15------------------------------17-19-17-15----|
g|---------------------16-1212-1212-12-14-1616-1616----------------|
d|-----------------------------------------------------------------|
a|-----------------------------------------------------------------|
e|-----------------------------------------------------------------|

E|-----------------------------------------------------|
b|-----------------------------------------------------|
g|---1414--1212-14-12-1212-14-12-----------------------|
d|-----------------------------------------------------|
a|-----------------------------------------------------|
e|-----------------------------------------------------|

  Pre-Chorus
E|-----------------------------------------------------|
b|-----------------------------------------------------|
g|-----------------------------------------------------|
d|-2-------------4-5-----------------------------------|
a|-2-2222222222--4-5-(let ring)------------------------|
e|-0-0000000000--2-3-----------------------------------|
    p.m..........

  Chorus  Guitar 1
E|--2---0---2---3--5--3------------------|
b|----3---3---3--------------------------|
g|---------------------------------------| x4
d|---------------------------------------|
a|---------------------------------------|
e|---------------------------------------|


  Chorus  Guitar 2 (you can work out the rhythm)
E|-----------------------------------------------------|
b|-----------------------------------------------------|
g|--7--------------------------------------------------| x2
d|--7----2----5----7-----------------------------------|
a|--5----2----5----7-----------------------------------|
e|-------0----3----5-----------------------------------|

Repeat Intro Part 2 + Verse + Chorus

  Bridge
E|--------------------------------------------------|
b|--------------------------------------------------|
g|--------9-7-(x4)--------9-7-(x2)-------9-7-(x2)---| x2
d|------7---------------7--------------7------------|
a|--5-5---------------------------------------------|
e|------------------7-7------------5-5--------------|

Repeat Chorus + Intro Part 2 + Intro Part 1
Related for Panik Attack - Social System tab