Guitaretab - guitar tabs
Song name
# A B C D E F G H I J K L M N O P Q R S T U V W X Y Z

Misc Unsigned Bands - Panik Attack - Curious tab

-----------------------------------------------------------------------------
		            Curious - Panik Attack
-----------------------------------------------------------------------------

Tabbed by: Matt Barry
Email: matt_barry182@msn.com

Standard Tuning


  Intro Part 1
E|------------------------------------------------------------|
B|------------------------------------------------------------|
G|--8-8-XXXX--------------------------------------------------| X2
D|--8-8-XXXX-8-8-XXXX-10-10-XXXX-6-6--------------------------|
A|--6-6-XXXX-8-8-XXXX-10-10-XXXX-6-6--------------------------|
E|-----------6-6-XXXX--8--8-XXXX-4-4--------------------------|


  Intro Part 2 Guitar 1
E|-------------------------------------------|
B|-------------------------------------------|
G|--8----------------------------------------| X2
D|--8---8---10---6---------------------------|
A|--6---8---10---6---------------------------|
E|------6----8---4---------------------------|
[ Tab from: http://www.guitaretab.com/m/misc-unsigned-bands/76302.html ]
  Intro Part 2 Guitar 2
E|----------------------------|
B|----------8---9---11-9-8----|
G|--8-8-8-8---8---8-----------| x4
D|----------------------------|
A|----------------------------|
E|----------------------------|

  Verse
E|------------------------------------------------|
B|-----------------8------------------------------|
G|--8-8-8-8-10-8-8---8-8-8-10-8-10-8--------------| X8
D|------------------------------------------------|
A|------------------------------------------------|
E|------------------------------------------------|
  Pm................................

Repeat: Intro Part 1

  Chorus
E|-------------------------------------------|
B|-------------------------------------------|
G|--8----------------------------------------| X2
D|--8---8---10---6---------------------------|
A|--6---8---10---6---------------------------|
E|------6----8---4---------------------------|

Repeat: Verse  Intro Part 1  Chorus  Intro Part 2

  Bridge
E|--------------------------------------------|
B|--------------------------------------------|
G|--8-----------------------------------------| X2
D|--8---8---10---6-666666666------------------|
A|--6---8---10---6-666666666------------------|
E|------6----8---4-444444444------------------|
                   Pm.......

Repeat: Intro Part 1  Chorus  Intro Part 2

  End on
E|------|
B|------|
G|--8---|
D|--8---|
A|--6---|
E|------|
Related for Panik Attack - Curious tab