Guitaretab - guitar tabs
Song name
# A B C D E F G H I J K L M N O P Q R S T U V W X Y Z

Misc Unsigned Bands - Panik Attack - Look At Him tab

-----------------------------------------------------------------------------
			 Look at him - Panik Attack
-----------------------------------------------------------------------------

Tabbed by: Matt Barry
Email: matt_barry182@msn.com


   Intro - Guitar 1
E|--------------------------------------------------|
B|--------------------------------------------------|
G|------5-5h7p5-7/9-7---5h7p5-7/9-7---7h9p7-5-7-----|
D|--------------------3-------------7-----------5---| x2
A|--------------------------------------------------|
E|-/\-----------------------------------------------|

  Intro  Guitar 2 (You work out the rhythm)
E|----------------------------------|
B|----------------------------------|
G|---5------------------------------|
D|---5---3---7---5------------------| x2
A|---3---3---7---5------------------|
E|-------1---5---3------------------|

  Verse  Guitar 1
E|------3-5------3-3-5-3-5-3---3-5------3-3-5-3-5-3--------|
B|----5--------5-------------5--------5-------------5-3-1--|
G|---------------------------------------------------------|
D|---------------------------------------------------------|
A|---------------------------------------------------------|
E|---------------------------------------------------------|

E|---------------------------------------------------------|
B|--5-3-1-3--1-3-5-3-11--3-1-3--5-3-1-3-1-3-1-------------|
G|--------------------2------------------------------------| (x2)
D|---------------------------------------------------------|
A|---------------------------------------------------------|
E|---------------------------------------------------------|
[ Tab from: http://www.guitaretab.com/m/misc-unsigned-bands/76303.html ]
  Verse  Guitar 2
E|------------------------------------------------------------------|
B|------------------------------------------------------------------|
G|-5----------------------------------------------------------------|
D|-5-555555555555--3---------------7---------------3----------------| x2
A|-3-333333333333--3-333333333333--7-777777777777--3-33333333333----|
E|-----------------1-111111111111--5-555555555555--1-11111111111----|
  p.m............    ............    ............    ...........

  Chorus  Guitar 1 (You work out the rhythm)
E|----------------------------------|
B|----------------------------------|
G|---5------------------------------|
D|---5---7---3---5------------------| x2
A|---3---7---3---5------------------|
E|-------5---1-- 3------------------|

E|----------------------------------------------------------|
B|----------------------------------------------------------|      2nd time end on
G|----------------5----5------------------------------------|
D|------7----7-55-5-55-5----3----3----5----5---  x2     -3--|
A|---77-7-77-7-33-3-33-3-33-3-33-3-55-5-55-5---         -3--|
E|---55-5-55-5-----------11-1-11-1-33-3-33-3---         -1--|
  p.m..   ..   ..   ..   ..   ..   ..   ..


Repeat Intro + Verse + Chorus

  Bridge
E|----------3---------------------3-------------|
B|------------1---1-----------------1---1-------|
G|------0-------0---(x2)--------------0----(x2)-|
D|----2---2-------------------0-----------------| x2
A|--3-----------------------2---2---------------|
E|------------------------3---------------------|

  Bridge Part 2  Palm Muted
E|---------------------------|
B|---------------------------|
G|---5-----------------------|
D|---5--5--7--3--------------| x2
A|---3--5--7--3--------------|
E|------3--5--1--------------|

Repeat Chorus + Intro
Related for Panik Attack - Look At Him tab