Song name
# A B C D E F G H I J K L M N O P Q R S T U V W X Y Z

Misc Unsigned Bands - Dicks In The Sun - Dirt On The Toe tab

There are three songs that have only bass playing so I don't have those songs. Well I 
you enjoy the other songs.
  1.Pookie
  2.She is naked
  3.Dirty toe
  4.Pickle juice
  5.The toilet story
  6.Bird Turd
  7.Poison bee sting
  8.Bestest
  9.Worstest
 10.The talk
                           1. Pookie

Intro
|-----------------|
|-----------------|
|-----------------|
|---4-4-5---4-3-2-|
|-5-6-6-7-5-6-5-4-|
|-7-------7-------|

verse play 2 times
|-----------------------------------------|
|-----------------------------------------|
|-----------------------------------------|
|---4-4---4-4---4-4-----4-4---4-4---4-4---|
|-5-6-6-5-6-6-5-6-6-5-5-6-6-5-6-6-5-6-6-5-|
|-7-----7-----7-----7-7-----7-----7-----7-|

verse play 2 times
|-----------------------------------------|
|-----------------------------------------|
|-----------------------------------------|
|---4-4---4-4---4-4-----4-4---4-4---4-4---|
|-5-6-6-5-6-6-5-6-6-5-5-6-6-5-6-6-5-6-6-5-|
|-7-----7-----7-----7-7-----7-----7-----7-|

solo
|-------6-6-6-6-9-9-9-9-9-5-5-5-5-8-8-8-8-8----------6-6-6-6-9-9-9-9-----|
|------9-9-9-9-9-6-6-6-6-6-8-8-8-8-8-5-5-5-5--------9-9-9-9-9-6-6-6-6----|
|8-8-8----------------------------------------8-8-8-------------------8--|
|------------------------------------------------------------------------|
|------------------------------------------------------------------------|
|------------------------------------------------------------------------|

verse play 2 times
|-----------------------------------------|
|-----------------------------------------|
|-----------------------------------------|
|---4-4---4-4---4-4-----4-4---4-4---4-4---|
|-5-6-6-5-6-6-5-6-6-5-5-6-6-5-6-6-5-6-6-5-|
|-7-----7-----7-----7-7-----7-----7-----7-|

verseplay 2 times
|-----------------------------------------|
|-----------------------------------------|
|-----------------------------------------|
|---4-4---4-4---4-4-----4-4---4-4---4-4---|
|-5-6-6-5-6-6-5-6-6-5-5-6-6-5-6-6-5-6-6-5-|
|-7-----7-----7-----7-7-----7-----7-----7-|


                           2. She is naked

Intro
|--------------------------------7--6--7--8-----------|
|--------------------------------7--6--7--8-----------|
|--------------------------------7--6--7--8-----------|
|-7--7-8---0-7-6--5--6-7----7--7--6--7--8---8-0-0-7-7-|
|-7--7-8----------5--6---8--7--7--6--7--8---8---------|
|-7------7---7-6--5----7-8--7--7--6--7--8---------7-7-|

verse play 3 times
|-----------------------------------|
|-----------------------------------|
|-----------------------------------|
|-7-8-0-0-7-7-6-5--6-7-6-5--6-7-6-5-|
|-7-8-----------5--6-----5--6-----5-|
|---------7-7-6-5----7-6-5----7-6-5-|

verse pplay 20 times
|------------------------------------|
|------------------------------------|
|------------------------------------|
|-6-7-6-5--6-7-6-5--6-7-6-5--6-7-6-5-|
|-6-----5--6-----5--6-----5--6-----5-|
|---7-6-5----7-6-5----7-6-5----7-6-5-|


                           3.Dirty toe

Intro PLAY 5x
-----------------------------------------------------------------------|
-----------------------------------------------------------------------|
-----4--------------------------------------------4--------------------|
-2-4---5---------------6-----4-----------6--2-2-4---5-------------6--2-|
---------2-4-----4---0---2-4---5-----4-4--------------2-4-----4-4------|
-------------2-4---5-------------2-4----------------------2-4----------|

verse PLAY 1x
------------------------------------|
------------------------------------|
-----5------------------------------|
-2-4------6-2-2-4---------------4---|
------2-4---------0-----4---2-4---5-|
--------------------2-4---5---------|

verse play 5x
-----------------------------------------------------------------------|
-----------------------------------------------------------------------|
-----4--------------------------------------------4--------------------|
-2-4---5---------------6-----4-----------6--2-2-4---5-------------6--2-|
---------2-4-----4---0---2-4---5-----4-4--------------2-4-----4-4------|
-------------2-4---5-------------2-4----------------------2-4----------|

chorus play 1x
------------------------------------|
------------------------------------|
-----5------------------------------|
-2-4------6-2-2-4---------------4---|
------2-4---------0-----4---2-4---5-|
--------------------2-4---5---------|


verse play 5x
-----------------------------------------------------------------------|
-----------------------------------------------------------------------|
-----4--------------------------------------------4--------------------|
-2-4---5---------------6-----4-----------6--2-2-4---5-------------6--2-|
---------2-4-----4---0---2-4---5-----4-4--------------2-4-----4-4------|
-------------2-4---5-------------2-4----------------------2-4----------|

chorus play 1x
------------------------------------|
------------------------------------|
-----5------------------------------|
-2-4------6-2-2-4---------------4---|
------2-4---------0-----4---2-4---5-|
--------------------2-4---5---------|

verse play 5x
-----------------------------------------------------------------------|
-----------------------------------------------------------------------|
-----4--------------------------------------------4--------------------|
-2-4---5---------------6-----4-----------6--2-2-4---5-------------6--2-|
---------2-4-----4---0---2-4---5-----4-4--------------2-4-----4-4------|
-------------2-4---5-------------2-4----------------------2-4----------|

chorus play 1x
------------------------------------|
------------------------------------|
-----5------------------------------|
-2-4------6-2-2-4---------------4---|
------2-4---------0-----4---2-4---5-|
--------------------2-4---5---------|

outro
-----------------------------------------------------------------------|
-----------------------------------------------------------------------|
-------------4---------------------------------------------------------|
-----3-3-2-4---5---------6-2-4-----------------------------------------|
-2-4-------------0-----0-------2-4-------------------------------------|
-------------------2-4-------------2-4-2-4--2-4---2--4----2---4-----2--|

                           4.Pickle juice
(sorry I don't have the the tab for this song)

                           5. The toilet story
the verse is all bass
chorus PLAY 5x
----------------|
----------------|
----------------|
-3-3--4--6-6--9-|
-3-3--4--6-6--9-|
-4-4--5--7-7--8-|

chorus PLAY 5x
----------------|
----------------|
----------------|
-3-3--4--6-6--9-|
-3-3--4--6-6--9-|
-4-4--5--7-7--8-|


                           6.Bird turd
(sorry this song has no guitar play just bass)

                           7.Poison Bee sting
intro play 1 time
----------------------------|
----------------------------|
-----5-----7--7---6-7-6-----|
--5--5--7--7--7---6-6-7-6-6-|
--4--4--6--6--6---5-5-6-5-5-|
--0-----0-----0---0-----0-0-|

verse play 13 times
---------------------|
---------------------|
-5-7-6-------5---7-7-|
-5-7-6-6-6-5-5-7-7-7-|
-4-6-5-5-5-4-4-6-6-6-|
-------0-0-0---0-----|

chorus play 5 times
----------------------------|
----------------------------|
-----5-----7--7---6-7-6-----|
--5--5--7--7--7---6-6-7-6-6-|
--4--4--6--6--6---5-5-6-5-5-|
--0-----0-----0---0-----0-0-|

verse play 6 times
---------------------|
---------------------|
-5-7-6-------5---7-7-|
-5-7-6-6-6-5-5-7-7-7-|
-4-6-5-5-5-4-4-6-6-6-|
-------0-0-0---0-----|

chorus play 7 times
----------------------|
----------------------|
----5---7-----6-7-6---|
--5-5-7-7-7-6-6-7-6-6-|
--4-4-6-6-6-5-5-6-5-5-|
--0---0-----0-------0-|

solo play 8x
---5-7-7---------6-6-|
-5-5-7-7-7-6-7-7-5-6-|
-4-4-6-6-6-5-6-6-0-5-|
-0-------0-0-0-0---0-|
---------------------|
---------------------|

verse play 6x
---------------------|
---------------------|
-5-7-6-------5---7-7-|
-5-7-6-6-6-5-5-7-7-7-|
-4-6-5-5-5-4-4-6-6-6-|
-------0-0-0---0-----|

chorus play 9 times
----------------------|
----------------------|
----5---7-----6-7-6---|
--5-5-7-7-7-6-6-7-6-6-|
--4-4-6-6-6-5-5-6-5-5-|
--0---0-----0-------0-|

outro play 9 times
---------------------|
---------------------|
-5-7-6-------5---7-7-|
-5-7-6-6-6-5-5-7-7-7-|
-4-6-5-5-5-4-4-6-6-6-|
-------0-0-0---0-----|


                           8.Bestest
(sorry this song has no guitar play just bass)

                           9.Worstest
(sorry this song has no guitar play just bass)

                          10.The talk
(there is no music in "The talk" the singer is just talking)
Tap to rate this tab
 
# A B C D E F G H I J K L M N O P Q R S T U V W X Y Z