Song name
# A B C D E F G H I J K L M N O P Q R S T U V W X Y Z

Misc Unsigned Bands - Nab Jerkers - Smelling Clit tab

It took a lot of hard work to find the tab to this song. Then I asked my Grandma and she
me how to play this. She knnew how to play smelling clit because back in the day she
in this band.

Intro:Verse play 5 times
e--------------------------------------|
B--------------------------------------|
G--------------------------------------|
D---------------------------4-4--5-6-6-|
A-4-4--5-6-6---4-4--5-6-6---2-2--3-4-4-|
E-2-2--3-4-4---2-2--3-4-4--------------|

Chorus: play 3 times
e-----------------------|
B-----------------------|
G-----------------------|
D-----9-9-----------6-6-|
A-7-7-7-7-7-6-6-7-7-4-4-|
E-8-8-----8-4-4-8-8-----|

Verse play 5 times
e--------------------------------------|
B--------------------------------------|
G--------------------------------------|
D---------------------------4-4--5-6-6-|
A-4-4--5-6-6---4-4--5-6-6---2-2--3-4-4-|
E-2-2--3-4-4---2-2--3-4-4--------------|

Chorus: play 3 times
e-----------------------|
B-----------------------|
G-----------------------|
D-----9-9-----------6-6-|
A-7-7-7-7-7-6-6-7-7-4-4-|
E-8-8-----8-4-4-8-8-----|

Solo:
e--6-7---------------------7--------6-7----------5-5-5--------------|
B------6-----4-5---------8--6-5-6-7----4-5-----7-------6---4--------|
G--------5-5-----6-8-8-9-------------------8-9-----------5---3-2--1-|
D-------------------------------------------------------------------|
A-------------------------------------------------------------------|
E-------------------------------------------------------------------|

Verse play 5 times
e--------------------------------------|
B--------------------------------------|
G--------------------------------------|
D---------------------------4-4--5-6-6-|
A-4-4--5-6-6---4-4--5-6-6---2-2--3-4-4-|
E-2-2--3-4-4---2-2--3-4-4--------------|

Chorus: play 3 times
e-----------------------|
B-----------------------|
G-----------------------|
D-----9-9-----------6-6-|
A-7-7-7-7-7-6-6-7-7-4-4-|
E-8-8-----8-4-4-8-8-----|
Tap to rate this tab
 
# A B C D E F G H I J K L M N O P Q R S T U V W X Y Z