Song name
# A B C D E F G H I J K L M N O P Q R S T U V W X Y Z

Misc Unsigned Bands - Nab Jerkers - Butt Cake For Breakfat tab

band - nab jerkers
song - butt cake for breakfast
album- pussy castle
written by Julian Deeker and frankie Lougan

play with some distortion

Intro: play 2 times
-------------------|
-------------------|
-0-0-----------0-0-|
-4-5-----------4-5-|
-3-4-1-2-1-2-1-3-4-|
-0-0-----------0-0-|

verse 1: play 5 times
---------------|
---------------|
-0-0-----------|
-4-5-----------|
-3-4-1-2-1-2-1-|
-0-0-----------|

chorus: play 2 times
-------------------------|
-------------------------|
-------5-4-3-------5-4-3-|
-4-5-6-5-4-3-4-5-6-5-4-3-|
-4-5-6-5-4-3-4-5-6-5-4-3-|
-4-5-6-------4-5-6-------|

verse 2: play 5 times
---------------|
---------------|
-0-0-----------|
-4-5-----------|
-3-4-1-2-1-2-1-|
-0-0-----------|

chorus: play 2 times
-------------------------|
-------------------------|
-------5-4-3-------5-4-3-|
-4-5-6-5-4-3-4-5-6-5-4-3-|
-4-5-6-5-4-3-4-5-6-5-4-3-|
-4-5-6-------4-5-6-------|

verse 3: play 5 times
---------------|
---------------|
-0-0-----------|
-4-5-----------|
-3-4-1-2-1-2-1-|
-0-0-----------|

chorus: play 2 times
-------------------------|
-------------------------|
-------5-4-3-------5-4-3-|
-4-5-6-5-4-3-4-5-6-5-4-3-|
-4-5-6-5-4-3-4-5-6-5-4-3-|
-4-5-6-------4-5-6-------|

Outro: play 2 times
-------------------|---------|
-------------------|---------|
-0-0-----------0-0-|---0-0---|
-4-5-----------4-5-|---4-5---|
-3-4-1-2-1-2-1-3-4-|---3-4---|
-0-0-----------0-0-|---0-0---|
                    play this after
                    the second time

Nab Jerkers didn't make it very big. They were around from 1969-1782
They had 7 albums and this is from their first. Bret Dundale was their first drumer but
eft cause he thought they were retarded. Then after their second album was recorded the
out that the new drummer Luke Cumber was gay. Finally the ended up with David Fing who 
for 5 ablums.
Tap to rate this tab
# A B C D E F G H I J K L M N O P Q R S T U V W X Y Z