Song name
# A B C D E F G H I J K L M N O P Q R S T U V W X Y Z

Misc Unsigned Bands - Eudora-satellites tab

Satellites: Eudora
Tabbed by Erik
comments/questions: ewlord-1492@hotmail.com


Intro:
E------------------------------------------------------------------|
B------------------------------------------------------------------|
G------------------------------------------------------------------|
D--8-9-8-------8-9-8-------8-9-8---8-9-8-------8-9-8-------8-9-8---|
A--------9-11--------9-11--------9-------9-11--------9-11--------9-|
E------------------------------------------------------------------|

E------------------------------------------------------------------|
B------------------------------------------------------------------|
G------------------------------------------------------------------|
D--8-9-8-------8-9-8-------8-9-8---8p9-8p9-8p9-8p9-8p9-8p9-8p9-8p9-|
A--------9-11--------9-11--------9---------------------------------|
E------------------------------------------------------------------|

E-----------------------------------------------------|
B-----------------------------------------------------|
G--888-444-888-444-88-44--11-11-11-11-888-9999-9p8p6--|
D-----------------------------------------------------|
A-----------------------------------------------------|
E-----------------------------------------------------|

E----------------------------------------------|
B----------------------------------------------|
G--444-888-444-888-44-88-6666-6h8p6-4444-3333--|
D----------------------------------------------|
A----------------------------------------------|
E----------------------------------------------|

E-----------------------------------------------------|
B-----------------------------------------------------|
G--888-444-888-444-88-44--11-11-11-11-888-9999-9p8p6--|
D-----------------------------------------------------|
A-----------------------------------------------------|
E-----------------------------------------------------|

E----------------------------------------------|
B----------------------------------------------|
G--444-888-444-888-44-88-6666-6h8p6-4444-3333--|
D----------------------------------------------|
A----------------------------------------------|
E----------------------------------------------|

Verse (0:36):
E--------------------------------------------------------------------|
B--------------9-7----------------------------9-7--------------------|
G--------11--8-----------8----9-8-------11--8-----------8----9p8p6---|
D---------------------------9------------------------------9---------|
A--------------------------------------------------------------------|
E--44444-----------00000----------44444-----------00000--------------|

E-------------------------------------------------------------------|
B-------------------------------------------------------------------|
G-------------------------------------------------------------------|
D-------------------------------------------------------------------|
A-------------------------------------------------------------------|
E--444444444444444400000000000000044444444444444440000000000000000--|
Chorus (0:59):
E-----------------------------------------------------|
B-----------------------------------------------------|
G--888-444-888-444-88-44--11-11-11-11-888-9999-9p8p6--|
D-----------------------------------------------------|
A-----------------------------------------------------|
E-----------------------------------------------------|

E----------------------------------------------|
B----------------------------------------------|
G--444-888-444-888-44-88-6666-6h8p6-4444-3333--|
D----------------------------------------------|
A----------------------------------------------|
E----------------------------------------------|

E-----------------------------------------------------|
B-----------------------------------------------------|
G--888-444-888-444-88-44--11-11-11-11-888-9999-9p8p6--|
D-----------------------------------------------------|
A-----------------------------------------------------|
E-----------------------------------------------------|

E----------------------------------------------|
B----------------------------------------------|
G--444-888-444-888-44-88-6666-6h8p6-4444-3333--|
D----------------------------------------------|
A----------------------------------------------|
E----------------------------------------------|

Verse 2 (1:22):
E------------------------------------------------------------------|
B------------------------------------------------------------------|
G------------------------------------------------------------------|
D--------9-9-9-9-9-------8-8-8-9-9-------9-9-9-9-9-------8-8-8-9-8-|
A------------------------------------------------------------------|
E--44444-----------00000-----------44444-----------00000-----------|

E----------------------------------------------------------------------|
B----------------------------------------------------------------------|
G--------------------------------------------------------8--6--9p8p6---|
D--------9-9-9-9-9-------8-8-8-9-9-------9-9-9-9-9-------------------9-|
A----------------------------------------------------------------------|
E--44444-----------00000-----------44444-----------00000---------------|

Chorus (1:44):
E-----------------------------------------------------|
B-----------------------------------------------------|
G--888-444-888-444-88-44--11-11-11-11-888-9999-9p8p6--|
D-----------------------------------------------------|
A-----------------------------------------------------|
E-----------------------------------------------------|

E----------------------------------------------|
B----------------------------------------------|
G--444-888-444-888-44-88-6666-6h8p6-4444-3333--|
D----------------------------------------------|
A----------------------------------------------|
E----------------------------------------------|

E-----------------------------------------------------|
B-----------------------------------------------------|
G--888-444-888-444-88-44--11-11-11-11-888-9999-9p8p6--|
D-----------------------------------------------------|
A-----------------------------------------------------|
E-----------------------------------------------------|

E----------------------------------------------|
B----------------------------------------------|
G--444-888-444-888-44-88-6666-6h8p6-4444-3333--|
D----------------------------------------------|
A----------------------------------------------|
E----------------------------------------------|
Bass/drum duet (2:08-2:18)
Bridge intro (2:18):
E----------|	(Play 8x)
B----------|
G--8---9-8-|
D----9-----|
A----------|
E----------|

Bridge (2:29)
E--------------------------(Play 6x)-------------------------------|
B------------------------------------------------------------------|
G------------------------------------------------------------------|
D--8-9-8-------8-9-8-------8-9-8---8-9-8-------8-9-8-------8-9-8---|
A--------9-11--------9-11--------9-------9-11--------9-11--------9-|
E------------------------------------------------------------------|

This comes in after you play the above part 2x.
E---------(Play 4x)------------------|
B------------------------------------|
G------------------------------------|
D------------------------------------|
A------6-----6---6-----2-----2-------|
E--44444-44444-444-00000-00000-2-1-0-|

Chorus (3:03) play 2 times:
E-----------------------------------------------------|
B-----------------------------------------------------|
G--888-444-888-444-88-44--11-11-11-11-888-9999-9p8p6--|
D-----------------------------------------------------|
A-----------------------------------------------------|
E-----------------------------------------------------|

E----------------------------------------------|
B----------------------------------------------|
G--444-888-444-888-44-88-6666-6h8p6-4444-3333--|
D----------------------------------------------|
A----------------------------------------------|
E----------------------------------------------|

E-----------------------------------------------------|
B-----------------------------------------------------|
G--888-444-888-444-88-44--11-11-11-11-888-9999-9p8p6--|
D-----------------------------------------------------|
A-----------------------------------------------------|
E-----------------------------------------------------|

E----------------------------------------------|
B----------------------------------------------|
G--444-888-444-888-44-88-6666-6h8p6-4444-3333--|
D----------------------------------------------|
A----------------------------------------------|
E----------------------------------------------|

Outro (3:25):
E---------------------------------------------|
B---------------------------------------------|
G--8p6--------6p4-----------8p6----------6p4--|
D---------------------------------------------|
A---------------------------------------------|
E---------------------------------------------|

(Play lightly and distant)
E------------------------------------------------------------------|
B------------------------------------------------------------------|
G------------------------------------------------------------------|
D--8-9-8-------8-9-8-------8-9-8---8-9-8-------8-9-8-------8-9-8---|
A--------9-11--------9-11--------9-------9-11--------9-11--------9-|
E------------------------------------------------------------------|

E------------------------------------------------------------------|
B------------------------------------------------------------------|
G------------------------------------------------------------------|
D--8-9-8-------8-9-8-------8-9-8---8p9-8p9-8p9-8p9-8p9-8p9-8p9-8p9-|
A--------9-11--------9-11--------9---------------------------------|
E------------------------------------------------------------------|

E------------------------------------------------------------------|
B------------------------------------------------------------------|
G------------------------------------------------------------------|
D--8-9-8-------8-9-8-------8-9-8---8-9-8-------8-9-8-------8-9-8---|
A--------9-11--------9-11--------9-------9-11--------9-11--------9-|
E------------------------------------------------------------------|

E------------------------------------------------------------------|
B------------------------------------------------------------------|
G------------------------------------------------------------------|
D--8-9-8-------8-9-8-------8-9-8---8p9-8p9-8p9-8p9-8p9-8p9-8p9-8p9-|
A--------9-11--------9-11--------9---------------------------------|
E------------------------------------------------------------------|

End
Tap to rate this tab
# A B C D E F G H I J K L M N O P Q R S T U V W X Y Z