Song name
# A B C D E F G H I J K L M N O P Q R S T U V W X Y Z

Misc Unsigned Bands - Story Of My Life - After She Took It tab

Band: Story Of My Life
Song: After She Took It
Album: Save It For Tuesday
Tuning: Drop D


Intro x5 (gtr1)

e||------------------------------|
B||------------------------------|
G||------------------------------|
D||---777777771010101010101010---|
A||---777777771010101010101010---|
D||---777777771010101010101010---|
Pm    ........................

Gtr 2 x4 Note!: This intro part (gtrs 2) starts when gtr1 finishes his intro once then both gtrs
e||------------------------------|
B||------------------------------|
G||------------------------------|
D||---xx--7-xx--3-xx--10-xx-55---|
A||---xx--7-xx--3-xx--10-xx-55---|
D||---xx--7-xx--3-xx--10-xx-55---|

Intro pt 2 X4 gtr1

e||---------------------------------------|
B||---------------------------------------|
G||---10-101010101010-111111-101010-8-8---|
D||---x--x-x-x-x-x-x--x-x-x--x-x-x--x-x---|
A||---8--8-8-8-8-8-8--9-9-9--8-8-8--6-6---|
D||---------------------------------------|

Gtr2 x2
ALL pm
e||-------------------------------------------------------------------|
B||-------------------------------------------------------------------|
G||-------------------------------------------------------------------|
D||-------------------------------------------------------------------|
A||---7-7-7-7-7-7-7-7-77-10-10-10-10-10-10-10-10-1010-3------------5--|
D||---7-7-7-7-7-7-7-7-77-10-10-10-10-10-10-10-10-1010-3---------------|(same rythm)5(same rytmh)

Pre chorus

Both gtrs

e||-----------------------|
B||---6-4-----------------|
G||------66-5h6p5-1-13-33-|
D||-----------------------|
A||-----------------------|
D||-----------------------|


Chorus x2

Gtr 1
e||-----------------------------|
B||-----------------------------|
G||---1h3-33xx-6p5-11xxxx (x4)--|
D||-----------------------------|
A||-----------------------------|
D||-----------------------------|

Gtr 2

e||--------------------------|
B||--------------------------|
G||--------------------------|
D||---7x7x7x7x10x10x2x2-(x4)-|
A||---7x7x7x7x10x10x2x2------|
D||---7x7x7x7x10x10x2x2------|

Verse

Gtr 1 x5

e||---------------------|
B||---------------------|
G||---333111------------|
D||---------44333111----|
A||-----------------44--|
D||---------------------|


While gtr 2 plays on the 2nd 3rd 4th and fifth time

Gtr2 x2
ALL pm
e||-------------------------------------------------------------------|
B||-------------------------------------------------------------------|
G||-------------------------------------------------------------------|
D||-------------------------------------------------------------------|
A||---7-7-7-7-7-7-7-7-77-10-10-10-10-10-10-10-10-1010-3------------5--|
D||---7-7-7-7-7-7-7-7-77-10-10-10-10-10-10-10-10-1010-3---------------|(same rythm)5(same rytmh)

Bridge

Gtr 1
      1st Riff                  2nd riff
e||-------------------------|-----------------------------|
B||-------------------------|-----------------------------|
G||---101010888666555666888-|-10101010101011111110101088--|
D||---x-x-x-xxxxxxxxxxxxxxx-|-x-x-x-x-x-x-x-x-x-x-x-x-xx--|
A||---8-8-8-666444333444666-|-8-8-8-8-8-8-9-9-9-8-8-8-66--|
D||-------------------------|-----------------------------|

Again 1st riff Then 3rd Riff:

e||-----------------------|
B||----124575-4-5-4-5-4---|
G||---3-------------------|  x3
D||-----------------------|
A||-----------------------|
D||-----------------------|

Then 4th riff

e||-------------------|
B||-------------------|
G||---10101088866-3---|
D||---x-x-x-xxxxx-1---|
A||---8-8-8-66644-1---|
D||-------------------|


Gtr2
Riff 1 x2
e||----------------------------------------------------|
B||----------------------------------------------------|
G||----------------------------------------------------|
D||----------------------------------------------------|
A||---000000003333333355555588877788-------------------|
D||---000000003333333355555588877788-------------------|
PM    ..............................
Riff 1 variation 1 x1

e||-----------------------------------------------|
B||-----------------------------------------------|
G||-----------------------------------------------|
D||-----------------------------------------------|
A||---0000000033333333000000003333333355555555v---|
D||---0000000033333333000000003333333355555555v---|
PM    .......................................

*drums stuff*

FINAL CHORUS!!!

Gtr 1 x2

e||------------------------|
B||------------------------|
G||---1h3-33xx-6p5-33xxxx--|
D||------------------------|
A||------------------------|
D||------------------------|

Gtr 1

e||------------------------|
B||------------------------|
G||---6-4------------------|
D||------665h6p5-1-1-3-33--|
A||------------------------|
D||------------------------|

Gtr 1

e||-----------------------|
B||----124575-4-5-4-5-4---|
G||---3-------------------|  x3
D||-----------------------|
A||-----------------------|
D||-----------------------|

end on

G||3---
D||3---
A||1---

Gtr 2

e||--------------------------|
B||--------------------------|
G||--------------------------|
D||---7x7x7x7x10x10x2x2-(x7)-|
A||---7x7x7x7x10x10x2x2------|
D||---7x7x7x7x10x10x2x2------|

End on

e||2----
B||2----
G||2----
D||0----


YEAH!!!! pure emo!
Tap to rate this tab
# A B C D E F G H I J K L M N O P Q R S T U V W X Y Z