Song name
# A B C D E F G H I J K L M N O P Q R S T U V W X Y Z

Misc Unsigned Bands - The Retaliation - Take You On tab

-------------------------------------------------------------------------------

Tabbed by:wouldnt you like to know
Email:yomamma

Tuning:Drop d
verse 1
e|---------------------------------------------------------------------------|
B|---------------------------------------------------------------------------|
G|------(6x)------------(4x)--------------(repeat it all 4x)-----------------|
D|--x---------1h2---x---------3--2--0----------------------------------------|
A|--x---------1h2--x---------3--2--0-----------------------------------------|
D|--x---------1h2----x---------3--2--0---------------------------------------|


verse2
e|--------------------------------------------------------------------------|
B|--------------------------------------------------------------------------|
G|-----(x6)-----------(x6)-----(x6)-----------------------------------------|
D|--0--------4-----0--------6--------8---7--8--0--6--7--5-------------------|
A|--0--------4-----0--------6--------8---7--8--0--6--7--5-------------------|
D|--0--------4-----0--------6--------8---7--8--0--6--7--5-------------------|

e|---------------------------------------------------------------------------|
B|---------------------------------------------------------------------------|
G|------(x6)---------(x6)--------(x6)----------------------------------------|
D|---0--------4---0-------6---0-------8706705604503--------------------------|
A|---0--------4---0-------6---0-------8706705604503--------------------------|
E|---0--------4---0-------6---0-------8706705604503--------------------------|
repeat verse 1 and 2 then 1 againthen do this
this at a more fast pace
e|---------------------------------------------------------------------------|
B|---------------------------------------------------------------------------|
G|---------------------------------------------------------------------------|
D|--3205307302-02-02---repeat------------------------------------------------|
A|--3205307302-02-02---------------------------------------------------------|
E|--3205307302-02-02---------------------------------------------------------|
thenplay verse 1 and 2 then 1 then this then its over

| /  slide up
| \  slide down
| h  hammer-on
| p  pull-off
| ~  vibrato
| +  harmonic
| x  Mute note

this is exact i kno i helped write it
==========================================================================
Tap to rate this tab
 
# A B C D E F G H I J K L M N O P Q R S T U V W X Y Z