Guitaretab - guitar tabs
Song name
# A B C D E F G H I J K L M N O P Q R S T U V W X Y Z

Misc Unsigned Bands - The Retaliation - Dying Alone tab

-------------------------------------------------------------------------------
			     Dying alone - The retaliation
-------------------------------------------------------------------------------
Tabbed by:allprevails
Email:yomamma

Tuning:standard
verse1
e|---------------------------------------------------------------------------|
B|---------------------------------------------------------------------------|
G|------0--------0---------0-------------------------------------------------|
D|----9--------7---------5------3p2-3/9--------------------------------------|
A|--7--------5---------3-----------------------------------------------------|
E|-0-------0---------0-------------------------------------------------------|

e|---------------------------------------------------------------------------|
B|---------------------------------------------------------------------------|
G|------0------0-------0-----------------------------------------------------|
D|----9-------7------5-----3p2-3---------------------------------------------|
A|--7-------5-------3--------------------------------------------------------|
E|-0-------0------0----------------------------------------------------------|

e|---------------------------------------------------------------------------|
B|---------------------------------------------------------------------------|
G|------0-------0--------0---------------------------------------------------|
D|----9-------7--------5------3p2--3/9---------------------------------------|
A|--7-------5--------3-------------------------------------------------------|
E|-0-------0-------0---------------------------------------------------------|
[ Tab from: http://www.guitaretab.com/m/misc-unsigned-bands/76427.html ]
e|---------------------------------------------------------------------------|
B|---------------------------------------------------------------------------|
G|---------------------------------------------------------------------------|
D|----99-9h10p9-777h9p7-555h7p5-3--------------------------------------------|
A|---------------------------------------------------------------------------|
E|---------------------------------------------------------------------------|
chorus
e|---------------------------------------------------------------------------|
B|-0-0--0------0-------0------0----------------------------------------------|
G|-x-x--x--(x2)x-(x4)--x-(x2)-x--(x4) repeat all-----------------------------|
D|-7-7--4------5-------7------7----------------------------------------------|
A|-9-5--2------3-------9------5----------------------------------------------|
E|-0-0--0------0-------0------0----------------------------------------------|

e|---------------------------------------------------------------------------|
B|---------------------------------------------------------------------------|
G|-0-(x2)--0--(x4)-----(x2)-0--(x4)------------------------------------------|
D|-x-------x---------2------x--------repeat all------------------------------|
A|-9-------7---------2------5------------------------------------------------|
E|-7-------5---------0------3------------------------------------------------|

e|---------------------------------------------------------------------------|
B|---------------------------------------------------------------------------|
G|---------------------------------------------------------------------------|
D|-----99------77-------55---------------------------------------------------|
A|---7-------5---------3-----33233/7-----------------------------------------|
E|-00------00-------00-------------------------------------------------------|
repeat all of the song then do verse 1but not 4x lik usual just once stop after the slide


| /  slide up
| \  slide down
| h  hammer-on
| p  pull-off
| ~  vibrato
| +  harmonic
| x  Mute note
===============================================================================
Related for The Retaliation - Dying Alone tab
Advertisement will be closed in 10 seconds