Song name
# A B C D E F G H I J K L M N O P Q R S T U V W X Y Z

Misc Unsigned Bands - The Shavers - Alcohol tab

The Shavers - Alcohol
tabbed by: Niels van der Haven (huisrocker@hotmail.com)

E|------------------|---------------------|
B|---/8-8-----------|---------------------|
G|0-------9p7-------|-9--9-7-5------------|
D|-----------9-9p8-5|10-10-8-5---------8-8|
A|------------------|----------8-5-8-5-8-8|
E|------------------|---------------------|

E|------------------|---------------------|
B|---/8-8-----------|---------------------|
G|--------9p7-------|-9--9-7-5------------|
D|5----------9-9p8-5|10-10-8-5---------8-8|3x
A|5-----------------|----------8-5-8-5-8-8|
E|------------------|---------------------|

E|--------------|--------------|--------------|---------------|
B|--------------|--------------|--------------|---------------|
G|-9---9--------|--------------|-9---9--------|---------------|
D|10--10h12-10-8|-5----5-5-8p5-|10--10h12-10-8|-5------5-2-3-4|
A|--------------|(5)-5---------|--------------|(5)--5----2-3-4|
E|--------------|--------------|--------------|----------0-1-2|

Couplet:

E|---------------|
B|---------------|
G|---------------|
D|5-5-5-5-5-5-5-5| etc...
A|5-5-5-5-5-5-5-5|
E|3-3-3-3-3-3-3-3|
  ^ ^ ^ ^ ^ ^ ^ ^
Tap to rate this tab
 
# A B C D E F G H I J K L M N O P Q R S T U V W X Y Z