Song name
# A B C D E F G H I J K L M N O P Q R S T U V W X Y Z

Misc Unsigned Bands - Eelarkwarvay - City Ride tab

-------------------------------------------------------------------------------
			     City Ride - Eelarkwarvay
-------------------------------------------------------------------------------
Tabbed by:jdigvay
Email: jdigvay@gmail.com

Tuning: Standard (EADGBe)


   GUITAR 1
e|---------------------------------------------------------------------------|
B|---------------------------------------------------------------------------|
G|---------------------------------------------------------------------------|
D|--5h7-77--5h7-77--5h7--5h7-77--5-7-5---------------------------------------|
A|-------------------------------------8-7-5---------------------------------|
E|-------------------------------------------8-5-----------------------------|
   GUITAR 1
e|---------------------------------------------------------------------------|
B|---------------------------------------------------------------------------|
G|---------------------------------------------------------------------------|
D|--5h7-77--5h7-77--5h7--5h7-77--5-7-5---------------------------------------|
A|-------------------------------------8-7-5---------------------------------|
E|-------------------------------------------8-5-----------------------------|
 | GUITAR 2
e|---------------------------------------------------------------------------|
B|---------------------------------------------------------------------------|
G|--9------------------------------------------------------------------------|
D|--7------------------------------------------------------------------------|
A|---------------------------------------------------------------------------|
E|---------------------------------------------------------------------------|
   GUITAR 1
e|---------------------------------------------------------------------------|
B|---------------------------------------------------------------------------|
G|---------------------------------------------------------------------------|
D|--5h7-77--5h7-77--5h7--5h7-77--5-7-5---------------------------------------|
A|-------------------------------------8-7-5---------------------------------|
E|-------------------------------------------8-5-----------------------------|
 | GUITAR 2
e|---------------------------------------------------------------------------|
B|---------------------------------------------------------------------------|
G|--9------------------------------------------------------------------------|
D|--7------------------------------------------------------------------------|
A|---------------------------------------------------------------------------|
E|---------------------------------------------------------------------------|
   GUITAR 1
e|---------------------------------------------------------------------------|
B|---------------------------------------------------------------------------|
G|---------------------------------------------------------------------------|
D|--5h7-77--5h7-77--5h7--5h7-77--5-7-5---------------------------------------|
A|-------------------------------------8-7-5---------------------------------|
E|-------------------------------------------8-5-----------------------------|
 | GUITAR 2
e|---------------------------------------------------------------------------|
B|---------------------------------------------------------------------------|
G|--9------------------------------------------------------------------------|
D|--7------------------------------------------------------------------------|
A|---------------------------------------------------------------------------|
E|---------------------------------------------------------------------------|
   GUITAR 1
e|---------------------------------------------------------------------------|
B|---------------------------------------------------------------------------|
G|---------------------------------------------------------------------------|
D|--5h7-77--5h7-77--5h7--5h7-77--5-7-5---------------------------------------|
A|--------------------------------------8-7-5--------------------------------|
E|--------------------------------------------8-5----------------------------|
 | GUITAR 2
e|---------------------------------------------------------------------------|
B|--8h10-10-10--8h10-10-10--8h10--8h10-10-10-8h10-10b12r10-------------------|
G|---------------------------------------------------------------------------|
D|-----------------------------------------------------------7---------------|
A|---------------------------------------------------------------------------|
E|---------------------------------------------------------------------------|
   GUITAR 1
e|---------------------------------------------------------------------------|
B|---------------------------------------------------------------------------|
G|---------------------------------------------------------------------------|
D|--5h7-77--5h7-77--5h7--5h7-77--5-7-5---------------------------------------|
A|--------------------------------------8-7-5--------------------------------|
E|--------------------------------------------8-5----------------------------|
 | GUITAR 2
e|---------------------------------------------------------------------------|
B|--8h10-10-10--8h10-10-10--8h10--8h10-10-10-8h10-10b12r10-------------------|
G|---------------------------------------------------------------------------|
D|-----------------------------------------------------------7---------------|
A|---------------------------------------------------------------------------|
E|---------------------------------------------------------------------------|
   GUITAR 1
e|---------------------------------------------------------------------------|
B|---------------------------------------------------------------------------|
G|---------------------------------------------------------------------------|
D|--5h7-77--5h7-77--5h7--5h7-77--5-7-5---------------------------------------|
A|--------------------------------------8-7-5--------------------------------|
E|--------------------------------------------8-5----------------------------|
 | GUITAR 2
e|---------------------------------------------------------------------------|
B|--8h10-10-10--8h10-10-10--8h10--8h10-10-10-8h10-10b12r10-------------------|
G|---------------------------------------------------------------------------|
D|-----------------------------------------------------------7---------------|
A|---------------------------------------------------------------------------|
E|---------------------------------------------------------------------------|
   GUITAR 1
e|---------------------------------------------------------------------------|
B|---------------------------------------------------------------------------|
G|---------------------------------------------------------------------------|
D|--5h7-77--5h7-77--5h7--5h7-77--5-7-5---------------------------------------|
A|--------------------------------------8-7-5--------------------------------|
E|--------------------------------------------8-5----------------------------|
 | GUITAR 2
e|--------------------------------------------------------------|
B|--8h10-10-10--8h10-10-10--8h10--8h10-10-10-8h10-10b12r10------|
G|--------------------------------------------------------------|
D|-----------------------------------------------------------7--|
A|--------------------------------------------------------------|
E|--------------------------------------------------------------|

e|------------------------------------------------------------------------------------|
B|------------------------------------------------------------------------------------|
G|------------------------------------------------------------------------------------|
D|----------5-------------------------------------------------------------------------|
A|--7-7-7-7-3-5-7---------------------------------------------------------------------|
E|--5-5-5-5---3-5---------------------------------------------------------------------|

    A A A A C G A
Tap to rate this tab
# A B C D E F G H I J K L M N O P Q R S T U V W X Y Z