Song name
# A B C D E F G H I J K L M N O P Q R S T U V W X Y Z

Misc Unsigned Bands - Standard Use - Sacrifices tab

intro

E|-----------------------------|
B|-----------------------------|
G|-----------------------------|
D|--3-2-3-3-2-3-3-5-3---3---2--|
A|---3-3---3-3---3---3---3---3-| 2X
E|-1-----3-----5-------3---0---|

Verus

E|----------------------------------------|
B|----------------------------------------|
G|----------------------------------------|
D|----3---2---5---2h3p2p0----3-2-----5-3-2| 2X
A|-0-0-0-0-0-0-0-0--------------2---------|
E|------------------------1-1-----3-3-----|

chours

E|---------------------------------------------------------------------|
B|---------------------------------------------------------------------|
G|---------------------------------------------------------------------|
D|-2-2-2-2-2-2-2-2-3-3-3-3-3-3-3-3-2-2-2-2-2-2-2-2-5-5-5-5-3-3-3-3--2--| 2X
A|-0-0-0-0-0-0-0-0-0-0-0-0-0-0-0-0-x-x-x-x-x-x-x-x-x-x-x-x-x-x-x-x---3-|
E|---------------------------------3-3-3-3-3-3-3-3-3-3-3-3-3-3-3-3-1---|
Tap to rate this tab
# A B C D E F G H I J K L M N O P Q R S T U V W X Y Z