Song name
# A B C D E F G H I J K L M N O P Q R S T U V W X Y Z

Misc Unsigned Bands - Give Em Hot Milk - Strange Mountain tab

BOTH GUITARS
Intro Part 1 (x2)

e|--------------------------------------------------|
B|--------------------------------------------------|
G|--------------------------------------------------|
D|---------0-0---------0-7---------7-8----------7-0-|
A|---------7-8---------0-0---------7-8-----9----7-0-|
E|-0-0-0-0-----5-5-5-5-----7-7-7-7-----9-9---11-----|

Intro Part 2 (x2)
e|------------------------------|
B|------------------------------|
G|-7-7-7-7-9-9-11-11------------|
D|-x-x-x-x-x-x--x--x------------|
A|-5-5-5-5-7-7--9--9-11-4-5-4-5-|
E|------------------------------|

Verse (x4)
e|------------------------------------------|
B|------------------------------------------|
G|-------------6--------------------6-------|
D|-----3-5---4---4----------3-5---4---4-----|
A|---2-----5-------3------2-----5-------3---|
E|-1-------5---------2--1-------5---------2-|

Chorus (x2)
e|-------------------------------------------------|
B|-------------------------------------------------|
G|-------------------------------------9-9-2-3-----|
D|-3-3-3-3---------4-5-4-5-7-7-8-8-9-9---------4-5-|
A|-3-3-3-3-6-6-7-7---------7-7-8-8-----------------|
E|-1-1-1-1-----------------7-7-8-8-----------------|

Intro Part 1 (x2)

e|--------------------------------------------------|
B|--------------------------------------------------|
G|--------------------------------------------------|
D|---------0-0---------0-7---------7-8----------7-0-|
A|---------7-8---------0-0---------7-8-----9----7-0-|
E|-0-0-0-0-----5-5-5-5-----7-7-7-7-----9-9---11-----|

Intro Part 2 (x2)
e|------------------------------|
B|------------------------------|
G|-7-7-7-7-9-9-11-11------------|
D|-x-x-x-x-x-x--x--x------------|
A|-5-5-5-5-7-7--9--9-11-4-5-4-5-|
E|------------------------------|

Verse (x4)
e|------------------------------------------|
B|------------------------------------------|
G|-------------6--------------------6-------|
D|-----3-5---4---4----------3-5---4---4-----|
A|---2-----5-------3------2-----5-------3---|
E|-1-------5---------2--1-------5---------2-|

Chorus (x2)
e|-------------------------------------------------|
B|-------------------------------------------------|
G|-------------------------------------9-9-2-3-----|
D|-3-3-3-3---------4-5-4-5-7-7-8-8-9-9---------4-5-|
A|-3-3-3-3-6-6-7-7---------7-7-8-8-----------------|
E|-1-1-1-1-----------------7-7-8-8-----------------|

Guiatr 1 Solo
e|-----------------------------15h17----------20-----|
B|------------------------11b--------15-----------21-|
G|----------------------7----------------------------|
D|---5-7--------------9--------------------17b-------|
A|-------9-11-12----9----------------------17b-------|
E|-0-------------11----------------------------------|

Guitar 2 Solo
e|-17----------------------20b-17b---------21-20---------------------------|
B|-----15h16-----------------------13-------------15b----------------------|
G|---------------------------------------------------------------17h18-20b-|
D|-------------------------------------11--------------------18b-----------|
A|---------------------0h9-------------------------------17b---------------|
E|-----------13-14-13------------------------------------------------------|
Tap to rate this tab
 
# A B C D E F G H I J K L M N O P Q R S T U V W X Y Z