Song name
# A B C D E F G H I J K L M N O P Q R S T U V W X Y Z

Misc Unsigned Bands - Overide - Save Me tab

This is Track 1 off oveRide's new album 'Blackout', Enjoy. Be sure to visit 
Thanks.

INTRO/CHORUS

E|-4--------6--------9---------4------------|
A|-6-- x16  8-- x16  11-- x16  6--  x16  ---|
D|-6--------8--------11--------6------------|   (x2)
G|------------------------------------------|
B|------------------------------------------|
e|------------------------------------------|

VERSE 1

E|-4--------9---------6---------4------------|
A|-6-- x16  11-- x16  8-- x16  -6-- x16  ----|
D|-6--------11--------8---------6------------| (Palm Muted)
G|-------------------------------------------|
B|-------------------------------------------|
e|-------------------------------------------|

STRAIGHT AFTER VERSE PLAY THIS

E|------------|
A|----4-4-----|
D|----6-6-----|  (Not Palm Muted)
G|----6-6-----|
B|------------|
e|------------|

VERSE 2

E|-4--4--4--4--6--6--6--6--------------4--4--4--4-xxxx--|
A|-6--6--6--6--8--8--8--8--4--4--4--4--6--6--6--6-xxxx--|
D|-6--6--6--6--8--8--8--8--6--6--6--6--6--6--6--6-xxxx--|
G|-------------------------6--6--6--6--6----------------|
B|------------------------------------------------------|
e|------------------------------------------------------|

CHORUS

VERSE 1 + VERSE 2

CHORUS

VERSE 3

E|-4--------------9--------------6--------------4--xxxx--|
A|-6--------------11-------------8--------------6--xxxx--|
D|-6--------------11-------------8--------------6--xxxx--|
G|-------------------------------------------------------|
B|-------------------------------------------------------|
e|-------------------------------------------------------|

CHORUS (x2)

FINISH

Any Questions? E-mail me at dearden666@aol.com, Thanks.
Tap to rate this tab
# A B C D E F G H I J K L M N O P Q R S T U V W X Y Z