Song name
# A B C D E F G H I J K L M N O P Q R S T U V W X Y Z

Misc Unsigned Bands - The Williwaw Ingrates - Radioactive tab

The Williwaw Ingrates 
Radioactive

Verse

|-------------0----|
|-------------0----|
|----7--2-----1----|
|-4--7--2-----2----|
|-4--5--0-----2----|
|-2--------2--0----|

Chorus

|------------------0----|
|------------------0----|
|----7--9-------2--1----|
|-4--7--9----4--2--2----|
|-4--5--7----4--0--2----|
|-2----------2-----0----|

Solo

|---------------------------------|
|-7-7-----------------------------|
|-----6-6-----6-6--6-6-4-6-4-6----|
|---------4-4---------------------|
|---------------------------------|
|---------------------------------|

Verse 2x
Chorus 2x
Verse 2x
Chorus 2x
Solo 2x
Chorus 4x
Tap to rate this tab
# A B C D E F G H I J K L M N O P Q R S T U V W X Y Z