Song name
# A B C D E F G H I J K L M N O P Q R S T U V W X Y Z

Misc Unsigned Bands - Parallel Lines - Now That Your Gone tab

Now that your gone Tab by Parallel Lines

This is a great song from a new up and coming band. I know that this tab is 100% correct 
I know the guitarist personally and he helped me with it.

Intro:

e|-----------------|----------------|
B|-----------------|----------------|
G|--------99999----|----------------|
D|-11-11--99999----|-9-9--77777-----| (x4)
A|-11-11--77777----|-9-9--77777-----|
E|-9--9------------|-7-7--55555-----|


Verse:


e|-----------------|----------------|----------------|----------------|
B|-----------------|----------------|----------------|----------------|
G|-----------------|-----9-----9----|----------------|----------------|
D|-----11-----11---|---9---9-9---9--|-----9-----9----|-----7-----7----| x2
A|---11--11-11--11-|--7-----7-------|---9---9-9---9--|---7---7-7---7--|
E|--9------9-------|----------------|--7-----7-------|--5-----5-------|


Chorus: Same as Intro (extra x2)


Solo

e|----------------|-----------------|----------------|----------------|
B|----------------|-----------------|----------------|----------------|
G|----------------|-----------------|----------------|----------------|
D|-11-------------|-9---------------|-7--------------|----------------|
A|-11-------------|-9---------------|-7--------------|----------------|
E|-9--------------|-7---------------|-5--------------|----------------|

e|-9-9------------|-----------------|----------------|----------------|
B|----------------|12-9-------------|----------------|----------------|
G|----------------|-----11-9-11-9---|---------9-11-11|11-11-11-9-11-11|
D|----------------|---------------11|------11--------|----------------|
A|----------------|-----------------|----------------|----------------|
E|----------------|-----------------|----------------|----------------|

e|----------------|-----------------|
B|----------------|-----------------|
G|-11b13-11b13-11b|13-11b13-11-9----|
D|----------------|--------------11-|
A|----------------|-----------------|
E|----------------|-----------------|

b=bend


End:

e|----------------|-----------------|----------------|----------------|
B|----------------|-----------------|----------------|----------------|
G|----------------|-----------------|----------------|----------------|
D|--11------------|--9--------------|--7-------------|--5-------------|
A|--11------------|--9--------------|--7-------------|--7-------------|
E|--9-------------|--7--------------|--5-------------|--7-------------|

Order:

Intro

Verse

Chorus

Verse

Chorus

Solo

Chorusx2

End
Tap to rate this tab
 
# A B C D E F G H I J K L M N O P Q R S T U V W X Y Z