Song name
# A B C D E F G H I J K L M N O P Q R S T U V W X Y Z

Misc Unsigned Bands - The Williwaw Ingrates - Dish Soap tab

The Williwaw Ingrates - Dish Soap

Intro

|-----------|
|-----------|
|-5--5/7----|
|-5--5/7----|
|-3--3/5----|
|-----------|

Verse

|--------------|
|--------------|
|-7--2--4-5----|
|-7--2--4-5----|
|-5--0--2-3----|
|--------------|

Chorus

|------------|
|------------|
|------------|
|-2--5--4----|
|-0--3--2----|
|------------|

Bridge

|-----------|
|-----------|
|-----------|
|-9--7/9----|
|-7--5/7----|
|-----------|

Song Layout

Intro 4x
Verse 4x
Chorus 4x
Verse 4x
Chorus 4x
Birdge 4x
Chorus 4x, Vocaless for Outro

Key

/ | Slide

Tap to rate this tab
 
# A B C D E F G H I J K L M N O P Q R S T U V W X Y Z