Song name
# A B C D E F G H I J K L M N O P Q R S T U V W X Y Z

Misc Unsigned Bands - The Williwaw Ingrates - Astrowall tab

The Williwaw Ingrates - Astrowall

Verse

|----------|
|----------|
|----------|
|-10--8----|
|-10--8----|
|-8---6----|

Chorus

|---------------|
|---------------|
|-7--7--5--7----|
|-7--7--5--7----|
|-5--------5----|
|---------------|

Interlude

|---------------|
|---------------|
|---------------|
|-7/9--9-7-9----|
|-5/7--7-5-7----|
|---------------|

Bridge

|--------------------|
|--------------------|
|-5-4-2--------------|
|-------5-3-2--------|
|-------------5-3----|
|--------------------|

Song Layout

Verse 8x
Chorus 2x
Verse 8x
Chorus 2x
Interlude 2x
Bridge 1x
Guitar Cuts Out
Chorus, 2x Without Vocals
Chorus 1x W/ Vocals
Tap to rate this tab
# A B C D E F G H I J K L M N O P Q R S T U V W X Y Z