Song name
# A B C D E F G H I J K L M N O P Q R S T U V W X Y Z

Misc Unsigned Bands - The Glory Sea - Lily White tab

Lily White - The Glory Sea
Time Signature: 3:4

Intro:
Use your index finger to bar the G, B and E strings at the 12th fret.
----------15-------14-------12----------------12----------------12-------|
-12----12----12-------12-------12----15----15----15----13----13----13----|
----12----------12-------12-------12----12----------12----12----------12-|
-------------------------------------------------------------------------|
-------------------------------------------------------------------------|
-------------------------------------------------------------------------|
                                            Change in note v
----------15-------14-------12----------------12----------------15-------|
-12----12----12-------12-------12----15----15----15----13----13----13----|
----12----------12-------12-------12----12----------12----12----------12-|
-------------------------------------------------------------------------|
-------------------------------------------------------------------------|
-------------------------------------------------------------------------|
Tap to rate this tab
# A B C D E F G H I J K L M N O P Q R S T U V W X Y Z