Song name
# A B C D E F G H I J K L M N O P Q R S T U V W X Y Z

Misc Unsigned Bands - The Williwaw Ingrates - Star Wars Fan tab

The Williwaw Ingrates - Star Wars Fan
Intro

|-0--3--1--3-------------|
|-1--0--0--5-------------|
|-0--0--0--5-------------|
|-2--0--0--5-------------|
|-3--2--2--3-------------|
|----3--3-------3-5-7----|

Verse

|-----------------|
|-----------------|
|-----------------|
|----10-----9-----|
|----10-----10----|
|-8------7--------|

Chorus

|------------|
|------------|
|------------|
|------------|
|-5--7--5----|
|-3--5--3----|

Song Layout

Intro 1x
Verse 8x
Chorus 4x
Verse 8x
Chorus 6x
Tap to rate this tab
 
# A B C D E F G H I J K L M N O P Q R S T U V W X Y Z