Song name
# A B C D E F G H I J K L M N O P Q R S T U V W X Y Z

Misc Unsigned Bands - A Striking Resemblance - Amy Americana tab

Help us improve GuitareTab! Take a short survey!
Cape on 2nd
intro is finger picked

Written By: Josh Bate
www.myspace.com/asrxcore

intro
---------------------------------|
---------------------------0/0/0-|
---0-7h0----0-5h0----0-4h0-4/5/7-|
--5-5------4-4------2-2----------|
-7--------5--------3-------------|
---------------------------------|

-------------------------------|
-------------------------------|
---0-7h0----0-5h0----0-4h0-0-0-|
--5-5------4-4------2-2----4-5-|
-7--------5--------3-----------|
-------------------------------|

-7-5-0--7-x-------------|
-0-5-3--0-x-------------|
-0-0-0--0-0-12-12/11/12-|
-5-4-2--5-7--9-10-------|
-7-5-3--7-9-10-10-------|
------------------------|

*use these chords for the chorus and verse and bridge,listen for changes

 G D E D C
-3-5-7-5-3-|
-3-5-0-5-0-|
-0-0-0-0-4-|
-0-4-5-4-2-|
-2-5-7-5-3-|
-3---------|

(solo)
------------------------------------------------------|
------3-----------3----------------------------3------|
-0-2-4-4-2-0-0-2-4-4-2-0--0-2-4-5b-0-2-4b-0-2-4-4-2-0-|
------------------------------------------------------|
------------------------------------------------------|
------------------------------------------------------|

(end)
--------------------3-5p3----|
-----------0h1p0----3--------|
----0----0------2p0-0----0-0-|
---0----0-0---------0----4-5-|
--2--2h3------------2--------|
-3------------------3--------|
Related for A Striking Resemblance - Amy Americana tab