Song name
# A B C D E F G H I J K L M N O P Q R S T U V W X Y Z

Misc Unsigned Bands - Ost My Hearth - My Hearth tab

for my heart on palestine, stop war!
tabbed by alya

D----------------------7-----------------------------------------I
A------8---6---5-----------8---6-------8---6---5--------------5--I
F----7---7---7-------7---7---7-------7---7---7--------6---7------I
C-0----------------0--------------0-----------------7---7---7----I
G-------------------------------------------------0--------------I
D----------------------------------------------------------------I

D----------------------7-----------------------------------------------I
A------8---6---5-----------8---6-------8---6---5--------------5---5/10-I
F----7---7---7-------7---7---7-------7---7---7--------6---7------------I
C-0----------------0--------------0-----------------7---7---7---7------I
G-------------------------------------------------0--------------------I
D----------------------------------------------------------------------I

(REMEMBER, OUR TONE IS DOWN FROM C TO A# 
SO Cm REAL TONE BECOME Dm AT FINGER BORD) this section we call 1st section

  Cm       Bm       Cm       Fm                   Dm        G       Cm
D------------------------------------6—5h6p5--------------------------------
A-----4--------3--------4--------6-----------8-6--------8-----------------6-
F-------5-----------------5----5---5------------------9-----------6-----7---
C---5--------4---4----5------3----------------------9-----------7-----7-----
G-3--------2--------3-----------------------------------------7-----5-------
D-------------------------------------------------0---------5---------------
   Disini   kau…    terbiasa  bersama             menjalani kasih    sayang


  Dm      G          G
D------------------------------8-I
A-------8---------5----------5---I
F-----9---------6---------6------I
C---9---------7---------7--------I
G-7---------7--------------------I
D---------5----------5-----------I
  Bahagia ku dengan mu


Now play from A#m with same role from section 1


Reff: (2nd section)
A#m                 D#m
Bila kita mencintai yang lain

G#         Am        A#m
Mungkinkah hati ini akan tenang

F#             D#m
Sebisa mungkin tak akan pernah

C#m            F#
Sayang ku akan hilang


Play solo cello from Bm with 2nd section role


Play 1st section again from G#m


Play reff fromm G#m with 2nd section role


SEE MY PROFILE AT FRIENDSTER.COM AS ALYA (hd03112003.yahoo.com)
if somebody wanted build a magazine music (or same relation) for indonesian song,
please contact my email at hd03112003@yahoo.com
i'll face u'r challenge! ^_^
music 4 world peace!
Tap to rate this tab
# A B C D E F G H I J K L M N O P Q R S T U V W X Y Z