Song name
# A B C D E F G H I J K L M N O P Q R S T U V W X Y Z

Misc Unsigned Bands - Sex On Legs - Couldnt Get The Hang Of Wednesdays tab

-------------------------------------------------------------------------------
			     couldn't get the hang of wednesdays - S.O.L
-------------------------------------------------------------------------------
Tabbed by:Xburkeyx
Email: mattyburke@hotmail.co.uk

Tuning:standard tuning

/ = slide down
~ = vibrato
Introduction : listen to the song for the timing ( distortion )
play the in introduction twice
e|---------------------------------------------------------------------------|
B|---------------------------------------------------------------------------|
G|---------------------------------------------------------------------------|
D|-----999--7-9/----777--5-7/----555----555----777---------------------------|
A|-----777----------555----------333----333----555---------------------------|
E|---------------------------------------------------------------------------|

and then at the end of the introduction
e|---------------------------------------------------------------------------|
B|---------------------------------------------------------------------------|
G|---------------------------------------------------------------------------|
D|-----999--7-9/----777--5-7/----555----55555555-----------------------------|
A|-----777----------555----------333----33333333-----------------------------|
E|---------------------------------------------------------------------------|

verse:repeat twice
e|---------------------------------------------------------------------------|
B|---------------------------------------------------------------------------|
G|---------------------------------------------------------------------------|
D|----99999999---------------------------------------------------------------|
A|----77777777-99999999-1111111111111111-77777777----------------------------|
E|-------------77777777-9-9-9-9-9-9-9-9--55555555----------------------------|

before the chorus: play twice
e|---------------------------------------------------------------------------|
B|----0-0/-----0-0/-----0-0/-----0-0--0000-----------------------------------|
G|----0-0/-----0-0/-----0-0/-----0-0--0000-----------------------------------|
D|----9-9/-----7-7/-----5-5/-----7-7--7777-----------------------------------|
A|----7-7/-----5-5/-----3-3/-----5-5--5555-----------------------------------|
E|---------------------------------------------------------------------------|

chorus : play twice
e|---------------------------------------------------------------------------|
B|----0-0-0000-xx-0-0-0000-xx-0-0-0000-xx-0-0--0000000-----------------------|
G|----0-0-0000-xx-0-0-0000-xx-0-0-0000-xx-0-0--0000000-----------------------|
D|----9-9-9999-xx-7-7-9999-xx-5-5-5555-xx-7-7--7777777-----------------------|
A|----7-7-7777-xx-5-5-5555-xx-3-3-3333-xx-5-5--5555555-----------------------|
E|---------------------------------------------------------------------------|

bridge:

before the chorus: play twice
e|---------------------------------------------------------------------------|
B|----000/-----000/-----000/-----000-----------------------------------------|
G|----000/-----000/-----000/-----000-----------------------------------------|
D|----999/-----777/-----555/-----777-----------------------------------------|
A|----777/-----555/-----333/-----555-----------------------------------------|
E|---------------------------------------------------------------------------|


2nd verse: play twice
e|---------------------------------------------------------------------------|
B|---------------------------------------------------------------------------|
G|---------------------------------------------------------------------------|
D|----99999999---------------------------------------------------------------|
A|----77777777-99999999-1111111111111111-77777777----------------------------|
E|-------------77777777-9-9-9-9-9-9-9-9--55555555----------------------------|

Solo :
e|---------------------------------------------------------------------------|
B|---------------------------------------------------------------------------|
G|---------------------------------------------------------------------------|
D|---999999999999999---9-9-9-7-7-7-------7-----------7-7-7-5-5-5-------------|
A|---777777777777777---------------9-7-9---9-7-7-7-7-------------------------|
E|---------------------------------------------------------------------------|

e|---------------------------------------------------------------------------|
B|---------------------------------------------------------------------------|
G|---------------------------------------------------------------------------|
D|---------5-------------3-3-3---------------3-----------3---3-5-3-----------|
A|---7-5-7---7-5-5-5-5---------5-5-5--3~~--5---5--3~~ -5---5-------5-3~~-----|
E|---------------------------------------------------------------------------|

e|---------------------------------------------------------------------------|
B|---------------------------------------------------------------------------|
G|---------------------------------------------------------------------------|
D|-----------3-3--5-5-----------5-5--7-7-----------7-7--9-9------------------|
A|--3-3--5-5-----------5-5--7-7-----------7-7--9-9----------7-999999999999---|
E|---------------------------------------------------------------------------|

before the chorus : play twice
e|---------------------------------------------------------------------------|
B|----0-0/-----0-0/-----0-0/-----0-0--0000-----------------------------------|
G|----0-0/-----0-0/-----0-0/-----0-0--0000-----------------------------------|
D|----9-9/-----7-7/-----5-5/-----7-7--7777-----------------------------------|
A|----7-7/-----5-5/-----3-3/-----5-5--5555-----------------------------------|
E|---------------------------------------------------------------------------|

Chorus: play twice

e|---------------------------------------------------------------------------|
B|----0-0-0000-xx-0-0-0000-xx-0-0-0000-xx-0-0--0000000-----------------------|
G|----0-0-0000-xx-0-0-0000-xx-0-0-0000-xx-0-0--0000000-----------------------|
D|----9-9-9999-xx-7-7-9999-xx-5-5-5555-xx-7-7--7777777-----------------------|
A|----7-7-7777-xx-5-5-5555-xx-3-3-3333-xx-5-5--5555555-----------------------|
E|---------------------------------------------------------------------------|


outro : is the chorus just heavily speeded up
e|---------------------------------------------------------------------------|
B|----0-0-0000-xx-0-0-0000-xx-0-0-0000-xx-0-0--0000000-----------------------|
G|----0-0-0000-xx-0-0-0000-xx-0-0-0000-xx-0-0--0000000-----------------------|
D|----9-9-9999-xx-7-7-9999-xx-5-5-5555-xx-7-7--7777777-----------------------|
A|----7-7-7777-xx-5-5-5555-xx-3-3-3333-xx-5-5--5555555-----------------------|
E|---------------------------------------------------------------------------|


you probably wont of heard of the band but it is an incredibly catchy guitar tab , this 
is for the 2nd guitarist of the band who may sing. the lead guitar tab will be on a 
sheet. enjoy playing this is an easy song to play once you get the hang of it . byeeeee

Order of song :

intro x2
2nd intro x1
verse x2
before the chorus x2
chorus x2
bridge x2
2nd verse x2
solo x1
before the chorus x2
chorus x2
outro x2

enjoy :) xx
Tap to rate this tab
 
# A B C D E F G H I J K L M N O P Q R S T U V W X Y Z