Song name
# A B C D E F G H I J K L M N O P Q R S T U V W X Y Z

Misc Unsigned Bands - Defend Tonight - Song 1 tab

www.myspace.com/defendtonight

Guitar 1
-------------------------------------------------------------------|
-------------------------------------------------------------------|
--4-------4-----6-----8-----9-----8-----6-----4-----6----11--------|
--x-x32---x-x3--x-x3--x-x3--x-x3--x-x2--x-x2--x-x3--x-x3--x-x10----|
--2-------2-----4-----6-----7-----6-----4-----2-----4-----9--------|
-------------------------------------------------------------------|


Guitar 2
------------------------------------------------------------------------|
------------------------------------------------------------------------|
----9---------------4---------------------------------------------------|
----x--x16----------4-x16---4------6-------2-----4----------------------|
----7---------------2-------4-x16--6-x16---2-x8--4-x8-------------------|
----------------------------2------4-------0-----2----------------------|


Guitar 3
---------------------------------------------------------------------|
---------------------------------------------------------------------|
---------------7--6----------9---------------------------------------|
------7--9--7-------9--7--9------------repeat 4x---------------------|
---------------------------------------------------------------------|
---------------------------------------------------------------------|
Tap to rate this tab
 
# A B C D E F G H I J K L M N O P Q R S T U V W X Y Z