Song name
# A B C D E F G H I J K L M N O P Q R S T U V W X Y Z

Misc Unsigned Bands - Tried And Tested - Sacrifice Of Love tab

this is the only song this band has done so far but please learn it.  will be posting 
tab in the near future.
if u would like to contact me please e-mail me at:bam_0732@hotmail.com

intro
--------3--------3--------3--------3--------3--------3--------3--------3----|
------1---1----1---1----1---1----1---1----1---1----1---1----1---1----1---1--|
----------------------------------------------------------------------------|x2
----2--------2--------3--------3--------2--------2--------3--------3--------|
----------------------------------------------------------------------------|
----------------------------------------------------------------------------|


verse
----------------------------------------------------------------------------|
--------1-------1-------1-------1--------1--------1-------3-------3---------|
------2---2---2---2---2---2---2---2----0---0----0---0---0---0---0---0-------|x5
----2-------2-------3-------3-------------------------2-------2-------------|
-------------------------------------3--------3-----------------------------|
----------------------------------------------------------------------------|


chourus
----0-0-0--0-0----0-0-0--0-0----0-0-0--0-0----0-0-0--0-0--------------------|
----1-1-1--1-1----3-3-3--3-3----3-3-3--3-3----0-0-0--0-0--------------------|
----2-2-2--2-2----2-2-2--2-2----0-0-0--0-0----0-0-0--0-0--------------------|x2
----2-2-2--2-2----2-2-2--2-2----2-2-2--2-2----2-2-2--2-2--------------------|
----0-0-0--0-0----0-0-0--0-0----3-3-3--3-3----2-2-2--2-2--------------------|
----------------------------------------------------------------------------|

then repeat the 'verse' but only do it 3 times and go back into the chorus.

after the second chorus play this:

----0-0-0--0-0----0-0-0--0-0----0-0-0--0-0----0-0-0-0-----------------------|
----1-1-1--1-1----1-1-1--1-1----1-1-1--1-1----3-3-3-3-----------------------|
----2-2-2--2-2----2-2-2--2-2----0-0-0--0-0----0-0-0-0-----------------------|
----2-2-2--2-2----3-3-3--3-3----2-2-2--2-2----2-2-2-2-----------------------|
----0-0-0--0-0----3-3-3--3-3----3-3-3--3-3----3-3-3-3-----------------------|
----------------------------------------------------------------------------|

and after go straight in to playing the third verse:

----0-0-0-0-0-0-0-0--0-0-0-0-0-0-0-0--3-3-3-3-3-3-3-3--2-2-2-2-2-2-2-2------|
----1-1-1-1-1-1-1-1--1-1-1-1-1-1-1-1--0-0-0-0-0-0-0-0--3-3-3-3-3-3-3-3------|
----2-2-2-2-2-2-2-2--0-0-0-0-0-0-0-0--0-0-0-0-0-0-0-0--2-2-2-2-2-2-2-2------|x6
----2-2-2-2-2-2-2-2--2-2-2-2-2-2-2-2--0-0-0-0-0-0-0-0--0-0-0-0-0-0-0-0------|
----0-0-0-0-0-0-0-0--3-3-3-3-3-3-3-3--2-2-2-2-2-2-2-2-----------------------|
--------------------------------------3-3-3-3-3-3-3-3-----------------------|


after the third verse is:

----0-0-0-0-0----0--|
----0-0-1-1-1----1--|
----0-0-2-2-2----2--|x4
----0-0-2-2-2----2--|
----0-0-0-0-0----0--|
----0-0-0-0-0----0--|

----0----0----0----0----0----0----0----|
----1----1----3----3----3----3----0----|
----2----2----2----2----0----0----0----|x2
----2----2----2----2----2----2----2----|
----0----0----0----0----3----3----2----|
---------------------------------------|

if you have any questions or anything atall contact me on the e-mail stated above.

these are the song lyrics:

verse 1

everything you say,
everything you do,
everything you want me to do,
everytime you think,
is the time i sink,
i never want to lose you.


verse 2

i'm waiting for you,
take me away,
just one more moment to hold that dream,
just take me away with you.

verse 3

i dunno what to do cause i'll never be with you,
i dunno what to say cause you know i hate it this way,
i dunno what to think cause you know you make my heart sink,
i dunno what to do just know that i love you...

chorus

this is my sacrifice of love,
inever wanted to give up,
just take me out of this now,
i won't take anymore....this is my sacrifice of love
Tap to rate this tab
# A B C D E F G H I J K L M N O P Q R S T U V W X Y Z