Song name
# A B C D E F G H I J K L M N O P Q R S T U V W X Y Z

Misc Unsigned Bands - Ivy League-expectations Lead To Explanations Of Explorations tab

Tuning: Drop D
Backup Guitar's Part:

Intro x8
e]-------------------------10-------|
B]-----------------------8----8---8-|
G]-----0-------0-------0--------0---|
D]---9---9---9---9---9--------------|
A]-7-------7-------7----------------|
E]----------------------------------|

Verse x2
e]-----------------------------------------------------------------|
B]-----------------------------------------------------------------|
G]-55--------------44--------------77--------------99--------------|
D]-xx--------------xx--------------xx--------------xx--------------|
A]-33--------------22--------------55--------------77--------------|
E]-----------------------------------------------------------------|

Chorus x2
e]-----------------------------------------------------|
B]-----------------------------------------------------|
G]-999999999999-555555555555-777777777777-333333333333-|
D]-999999999999-555555555555-777777777777-333333333333-|
A]-777777777777-333333333333-555555555555-111111111111-|
E]-----------------------------------------------------|

e]------------------------------------------------------------------|
B]------------------------------------------------------------------|
G]-999999999999-555555555555-777777777777-33333333------------66666-|
D]-999999999999-555555555555-777777777777-33333333-33--55--66-xxxxx-|
A]-777777777777-333333333333-555555555555-11111111-33--55--66-44444-|
E]-------------------------------------------------33--55--66-------|

Verse x2
e]-----------------------------------------------------------------|
B]-----------------------------------------------------------------|
G]-55--------------44--------------77--------------99--------------|
D]-xx--------------xx--------------xx--------------xx--------------|
A]-33--------------22--------------55--------------77--------------|
E]-----------------------------------------------------------------|

Chorus x3
e]-----------------------------------------------------|
B]-----------------------------------------------------|
G]-999999999999-555555555555-777777777777-333333333333-|
D]-999999999999-555555555555-777777777777-333333333333-|
A]-777777777777-333333333333-555555555555-111111111111-|
E]-----------------------------------------------------|

e]------------------------------------------------------------------|
B]------------------------------------------------------------------|
G]-999999999999-555555555555-777777777777-33333333------------66666-|
D]-999999999999-555555555555-777777777777-33333333-33--55--66-xxxxx-|
A]-777777777777-333333333333-555555555555-11111111-33--55--66-44444-|
E]-------------------------------------------------33--55--66-------|

Tap to rate this tab
# A B C D E F G H I J K L M N O P Q R S T U V W X Y Z