Song name
# A B C D E F G H I J K L M N O P Q R S T U V W X Y Z

Misc Unsigned Bands - Fat Sallys Wooden Bucket - Haunting Me tab

PM - palm mute
H/ - hammer on

intro
e|-------------------------------------------------------| 
B|-------------------------------------------------------|
G|-------------------------------------------------------|
D|-------------------------------------------------------|  x2
G|-7-7-7-7-7-7-7-7-7-7-7-7-5-3-3-3-3-3-3-3-3-5-5-5-5-5-5-|
D|-5-5-5-5-5-5-5-5-5-5-5-5-3-1-1-1-1-1-1-1-1-3-3-3-3-3-3-|
  ------------PM---------  -------PM-------- -----PM-----

verse
e|-------------------------------------------------------| 
B|-------------------------------------------------------|
G|-------------------------------------------------------|
D|-------------------------------------------------------|
G|-7-7-7-7-7-7-7-7-7-7-7-7-5-3-3-3-3-3-3-3-3-5-5-5-5-5-5-|
D|-5-5-5-5-5-5-5-5-5-5-5-5-3-1-1-1-1-1-1-1-1-3-3-3-3-3-3-|

chorus
e|-------------------------------------------------------| 
B|-------------------------------------------------------|
G|-------------------------------------------------------|
D|-------------------------------------------------------|
G|-7-7-7-7-5-3-5-7-----7-5-3-5-5-5-5-5-5-5-5-------------|
D|-5-5-5-5-3-1-3-5-H/6-5-3-1-3-3-3-3-3-3-3-3-------------|

verse2
e|-------------------------------------------------------| 
B|-------------------------------------------------------|
G|-------------------------------------------------------|
D|-------------------------------------------------------|
G|-7-7-7-7-7-7-7-7-7-7-7-7-5-3-3-3-3-3-3-3-3-5-5-5-5-5-5-|
D|-5-5-5-5-5-5-5-5-5-5-5-5-3-1-1-1-1-1-1-1-1-3-3-3-3-3-3-|

chorus
e|-------------------------------------------------------| 
B|-------------------------------------------------------|
G|-------------------------------------------------------|
D|-------------------------------------------------------|
G|-7-7-7-7-5-3-5-7-----7-5-3-5-5-5-5-5-5-5-5-------------|
D|-5-5-5-5-3-1-3-5-H/6-5-3-1-3-3-3-3-3-3-3-3-------------|

basically thats it.
listen to haunting me by fat sallys wooden bucket at www.myspace.com/fatsallyswoodenbucket

Tap to rate this tab
# A B C D E F G H I J K L M N O P Q R S T U V W X Y Z