Guitaretab - guitar tabs
Song name
# A B C D E F G H I J K L M N O P Q R S T U V W X Y Z

Misc Unsigned Bands - Midnight Rider - My Heart Was Right tab

-------------------------------------------------------------------------------
			     My Heart Was Right  Midnight Rider
-------------------------------------------------------------------------------
Tabbed by: scorpion618^
Email: markmacva@hotmail.com
Tuning: Drop C (CGCFAd)

Chorus
d|---------------------------------------------------------------------------|
A|---------------------------------------------------------------------------|
F|---------------------------------------------------------------------------|
C|0---10---10----------------------------------------------------------------|
G|0---8----10----------------------------------------------------------------|
C|0---8----10---3/5-0000-5/7-00008/10-10\-----------------------------------|
		     xxxx     xxxx

Verse (Very quick release, almost like palm muting)
d|---------------------------------------------------------------------------|
A|---------------------------------------------------------------------------|
F|---------------------------------------------------------------------------|
C|15-15-14-14-15-15---10-10-10-10-10-10-10-3-3-3-3-3-3-3---10-10-10-10-10-10|
G|12-12-12-12-12-12---8--8--8--8--8--8--8---3-3-3-3-3-3-3---10-10-10-10-10-10|
C|12-12-12-12-12-12---8--8--8--8--8--8--8---3-3-3-3-3-3-3---10-10-10-10-10-10|
[ Tab from: http://www.guitaretab.com/m/misc-unsigned-bands/76780.html ]
Bridge		 1,3	   2	  4						
d|----------------|-------|----|---------------------------------------------|
A|----------------|-------|----|---------------------------------------------|
F|----------------|-------|----|---------------------------------------------|
C|----------------|-------|-6--|-8-------------------------------------------|
G|3/5-----5-----5-|6-6-6/5|-6--|-8-------------------------------------------|
C|0---0-0-0-0-0-0-|0-0-0--|-6--|-8-------------------------------------------|
      x x   x x

d|---------------------------------------------------------------------------|
A|---------------------------------------------------------------------------|
F|---------------------------------------------------------------------------|
C|0-0--------6---0-0--------8---0-0--------6---0-0---------8-----------------|
G|0-0--------6---0-0--------8---0-0--------6---0-0---------8-----------------|
C|0-0--00000-6---0-0--00000-8---0-0--00000-6---0-0--00000--8-----------------|
  x x  xxxxx     x x  xxxxx     x x  xxxxx     x x  xxxxx

X2
d|---------------------------------------------------------------------------|
A|---------------------------------------------------------------------------|
F|---------------------------------------------------------------------------|
C|0-----0---------------6---0-----0---------------8--------------------------|
G|0-----0---------------6---0-----0---------------8--------------------------|
C|0-000-0-000-00000000--6---0-000-0-000-00000000--8--------------------------|
    xxx   xxx xxxxxxxx        xxx   xxx xxxxxxxx

| /  slide up
| \  slide down
| x  Mute note
===============================================================================
Related for Midnight Rider - My Heart Was Right tab