Guitaretab - guitar tabs
Song name
# A B C D E F G H I J K L M N O P Q R S T U V W X Y Z

Misc Unsigned Bands - Among The First To Fall - The Rest Are Dead tab

Here you go tony

Drop(C)


---------------------------------------------------------|
---------------------------------------------------------|
--------9-9-9-9---------10--10--10--10-------------------|
0-0-0-0-x-x-x-x-0-0-0-0-x--x--x--x-----------------------|  x4
0-0-0-0-7-7-7-7-0-0-0-0-8--8--8--8-----------------------|
0-0-0-0---------0-0-0-0----------------------------------|

then end with this then repeat
[ Tab from: http://www.guitaretab.com/m/misc-unsigned-bands/76789.html ]
-------------------------------------------------------------------------|
-------------------------------------------------------------------------|
--------5-5-5-5---------5-5-5-5---------5-5-5-5--------------------------|
3-3-3-3-x-x-x-x-3-3-3-3-x-x-x-x-3-3-3-3-x-x-x-x-3-3-3-3-2-2-2-2----------|
3-3-3-3-3-3-3-3-3-3-3-3-3-3-3-3-3-3-3-3-3-3-3-3-3-3-3-3-2-2-2-2----------|
3-3-3-3---------3-3-3-3---------3-3-3-3---------3-3-3-3-2-2-2-2----------|
Related for Among The First To Fall - The Rest Are Dead tab
×
Among The First To Fall - The Rest Are Dead