Song name
# A B C D E F G H I J K L M N O P Q R S T U V W X Y Z

Misc Unsigned Bands - The Corners - Pettin And The Children tab

Song: Pettin
Artist: The Corners
Tuning: Normal (EADGBe)
Tabbed by: Roh

This song hasn't actually been released yet but i've heard it and i know it's destined 
be another classic by our old favourites, the corners. enjoy!

lyrics come in straight away...
e|-3333--33--22222222----|--00000000------------------------|
B|-3333--00--33333333----|--11111111--11111111--------------|
G|-0000--00--22222222----|--22222222--00000000--------------|
D|-0000--22--00000000----|--22222222--22222222--------------|  X2
A|-2222--22--------------|--00000000--33333333--------------|
E|-3333--00--------------|------------00000000--------------|


e|-33333333--33333333--2222222222222222--------|
B|-33333333--00000000--3333333333333333--------|
G|-00000000--00000000--2222222222222222--------|
D|-00000000--22222222--0000000000000000--------|  X2
A|-22222222--22222222--0000000000000000--------|
E|-33333333--00000000--------------------------|


e|-----------------------------------------------|
B|-----------------------------------------------|
G|--------99--77777777------33333333--55555555---|
D|---5555-99--77777777------33333333--55555555---|
A|---5555-77--55555555------11111111--33333333---|
E|---3333----------------------------------------|


www.thecorners.com
Tap to rate this tab
# A B C D E F G H I J K L M N O P Q R S T U V W X Y Z