Song name
# A B C D E F G H I J K L M N O P Q R S T U V W X Y Z

Misc Unsigned Bands - Four Have Fallen - Quarterbacks And Prom Kings tab

-------------------------------------------------------------------------------
			     SONG NAME - Band Name
-------------------------------------------------------------------------------
Tabbed by:fourhavefallen
Email: sky_corrigan@hotmail.com

Tuning:
Intro (2X)
e|--------------------------------------------------------------------------|
B|--------------------------------------------------------------------------|
G|----77777-----------------------------------------------------------------|
D|----77777-77777-99999-55555-----------------------------------------------|
A|----55555-77777-99999-55555-----------------------------------------------|
E|----*****-55555-77777-33333-----------------------------------------------|
 Verse (listen to cd for strumming pattern)
e|--------------------------------------------------------------------------|
B|--------------------------------------------------------------------------|
G|---77777------------------------------------------------------------------|
D|---77777-77777-99999-55555------------------------------------------------|
A|---55555-77777-99999-55555------------------------------------------------|
E|---*****-55555-77777-33333------------------------------------------------|
Chorus
e|--------------------------------------------------------------------------|
B|--------------------------------------------------------------------------|
G|--7-7-7-7-7-------------------77777---------------------------------------|
D|--7-7-7-7-7-77777-99999-55555-77777-77777-99999-5-5-5-5-5-----------------|
A|--5-5-5-5-5-77777-99999-55555-55555-77777-99999-5-5-5-5-5-----------------|
E|--*-*-*-*-*-55555-77777-33333-*****-55555-77777-3-3-3-3-3-----------------|

Now just listen to the song for the patterns, its #4 on the cd by the way
Tap to rate this tab
 
# A B C D E F G H I J K L M N O P Q R S T U V W X Y Z