Song name
# A B C D E F G H I J K L M N O P Q R S T U V W X Y Z

Misc Unsigned Bands - The Williwaw Ingrates - Who Are The Razorbacks tab

The Williwaw Ingrates - Who Are The Razorbacks?

Intro

|------------------------|
|------------------------|
|------------------------|
|-------5----------------|
|-7-5-7---7-5-7-----5----|
|---------------5-7------|

Verse

|------------|
|------------|
|------------|
|------------|
|-9----------|
|---7-5-2----|

Chorus

|--------------|
|--------------|
|--------------|
|--------------|
|-------2-0----|
|-2-0-2------0-|

Bridge

|------|
|------|
|------|
|------|
|-9----|
|---7-2|

Intro 4x
Verse 8x
Chorus 8x
Verse 8x
Chorus 8x
Tap to rate this tab
# A B C D E F G H I J K L M N O P Q R S T U V W X Y Z