Song name
# A B C D E F G H I J K L M N O P Q R S T U V W X Y Z

Misc Unsigned Bands - Furry Mogglen Dep Lock - Beef Jerky tab

awsome song why don't u try playing this

-5-5-5-6-5-6------------------------------------|
-4-4-4-5-4-5------------------------------------|
-4-4-4-5-4-5---0--------------------------------|
-------------0-0-0----5-5-5-6-5-6-7-7-7-6-7-6-5-|
-------------0-0-0----4-4-4-5-4-5-8-8-8-5-8-5-4-|
-------------0---0----4-4-4-5-4-5-8-8-7-5-8-5-4-|

----------------------------------|
----------------------------------|
---0------------------------------|
-0-0-0--5-5-5-6-5-6-7-7-7-6-7-6-5-|
-0-0-0--4-4-4-5-4-5-8-8-8-5-8-5-4-|
-0---0--4-4-4-5-4-5-8-8-7-5-8-5-4-|

-------0-----------0-----------0-----------0-----------0-|
-----0-0-0-------0-0-0-------0-0-0-------0-0-0-------0-0-|
---0-0-0-0-0---0-0-0-0-0---0-0-0-0-0---0-0-0-0-0---0-0-0-|
-0-0-0---0-0-0-0-0---0-0-0-0-0---0-0-0-0-0---0-0-0-0-0---|
-0-0-------0-0-0-------0-0-0-------0-0-0-------0-0-0-----|
-0-----------0-----------0-----------0-----------0-------|

send all good and bad comments please
if you think it is good please rate it
Tap to rate this tab
 
# A B C D E F G H I J K L M N O P Q R S T U V W X Y Z