Song name
# A B C D E F G H I J K L M N O P Q R S T U V W X Y Z

Misc Unsigned Bands - Among The First To Fall - Making Me Love You tab

Among the First to Fall
guitar 1
drop c
Making Me Love You

intro
---------------------------------------------------|
---------------------------------------------------|
-------7-10-9-12-10-9-10--------7-10-9-14-12-10-12-|
-0-0-0-x-x--x-x--x--x-x---0-0-0-x-x--x-x--x--x--x--|
-0-0-0-5-8--7-10-8--7-8---0-0-0-5-8--7-12-10-8--10-|
-0-0-0--------------------0-0-0--------------------|
 . . .                    . . .

----------------------------------------------|
----------------------------------------------|
-------7-10-9-12-10-9-10--------7-10-9--------|
-0-0-0-x-x--x-x--x--x-x---0-0-0-x-x--x-8~--7~-|
-0-0-0-5-8--7-10-8--7-8---0-0-0-5-8--7-8~--7~-|
-0-0-0--------------------0-0-0--------8~--7~-|
 . . .                    . . .

verse 1
-------------------------------------------------------------------|
-------------------------------------------------------------------|
-------14-12-------14-12-------10-9-------10-9-------7-5-------7-5-|
-0-0-0-x--x--0-0-0-x--x--8-8-8-x--x-8-8-8-x--x-5-5-5-x-x-5-5-5-x-x-|
-0-0-0-12-10-0-0-0-12-10-8-8-8-8--7-8-8-8-8--7-5-5-5-5-3-5-5-5-5-3-|
-0-0-0-------0-0-0-------8-8-8------8-8-8------5-5-5-----5-5-5-----|
 . . .       . . .       . . .      . . .      . . .     . . .

------------------ }
------------------ }
------------------ }
-3-3-3-3--2-2-2-2- } x 2
-3-3-3-3--2-2-2-2- }
-3-3-3-3--2-2-2-2- }
 . . .    . . .


chorus
------------------  ------|
------------------  ------|
------------------  ------|
-8-8-8-10-0-0-0-7-  --0~--|
-8-8-8-10-0-0-0-7-  --0~--|
-8-8-8-10-0-0-0-7-  --0~--|

verse 2
-------------------------------------------|
-------------------------------------------|
-------7-5-------8-7-------3-5-------------|
-0-0-0-7-5-0-0-0-8-7-0-0-0-3-5-7-7-7-8-8-8-|
-0-0-0-5-3-0-0-0-6-5-0-0-0-1-3-7-7-7-8-8-8-|
-0-0-0-----0-0-0-----0-0-0-----7-7-7-8-8-8-|
 . . .     . . .     . . .

chorus
------------------  ------|
------------------  ------|
------------------  ------|
-8-8-8-10-0-0-0-7-  --0~--|
-8-8-8-10-0-0-0-7-  --0~--|
-8-8-8-10-0-0-0-7-  --0~--|

bridge
-------------------------------------------------|
-------------------------------------------------|
------9----------9-----------10(12)------10(12)--|
---10--10-10--10--10-10---10---10-10--10---10-10-|
--8--8---8---8--8---8----0--0----0---0--0----0---|
-8----------8-----------0-----------0------------|

----  --------|
----  --------|
-9--  -10(12)-|
-10-  -10-----|
-8--  -0------|
-8--  -0------|


chorus
---------------------------  -----|
---------------------------  -----|
---------------------------  --10-|
-8-8-8-8-10-10-0-0-0-0-7-7-  --8--|
-8-8-8-8-10-10-0-0-0-0-7-7-  --8--|
-8-8-8-8-10-10-0-0-0-0-7-7-  --8--|
Tap to rate this tab
# A B C D E F G H I J K L M N O P Q R S T U V W X Y Z