Guitaretab - guitar tabs
Song name
# A B C D E F G H I J K L M N O P Q R S T U V W X Y Z

Misc Unsigned Bands - The Glory Sea - New Babylon tab

New Babylon (I Don't Belong)  The Glory Sea

Tabbed by Durden e. Singer.
Please email comments or complaints to durdensinger@gmail.com
This isn't the actual way that they play it, but it's the same chords and notes


Capo 3
All Chords and tabs in relation to Capo except for the guitar solo

Intro/Verse riff (Fig 1):
   D                               Dm
E:-2---2---2---2---2---2---2---2---1---1---1---1---1---1---1---1---|
B:---3---3---3---3---3---3---3---3---3---3---3---3---3---3---3---3-|

Intro: Fig 1 x6 (Guitar 1)

Guitar 2:
On 3rd and 4th times (Fig 2):
   D              Dm
E:-1-2-1-2-(rest)-1-0-1-0--------------------------------------|
B:-------------------------------------------------------------|
On 5th and 6th times (Fig 3):
   D                               Dm
E:-1-2-1-------1-2-1-------1-2-1-----------------------------------|
B:-------3---3-------3---3-------3-1-3-1-----------------------1-3-|
G:- -------------------------------------2---2-0-2---2-0-2--2-----|

VERSE 1:
Over Fig 1 and Fig 3
(D)                          Dm
A toast to the powers that be
(Dm)                           D
The wall to the voices unheard
(D)                       Dm
To whom prayers fall empty
(Dm)                             D
That make allowance for the absurd
(D)                                      Dm
You clutch at straws, make some laws and alibis
(Dm)                      D
And strip truth to the bone
(D)                  Dm
Do we protest now or fall in line
(Dm)     (D)(Guitar cut)
Or am I alone?
(D)     (Dm)
Or am I alone?
(Dm)     (D)
Or am I alone?
(D)     (Dm)
Or am I alone?

(No Chord) D
Woah!


VERSE 2:
(D)                              Dm
Fluorescent greed, incessant need
(Dm)                        D
More than we could ever know
(D)                                     Dm
Written on our hearts and our TV Screens
(Dm)                 D
Our shame put on show
(D)                                               Dm
There's no karma there's nothing worth killing for
(Dm)                          D
I'm not getting what I deserve
(D)                                          Dm
I'm set free with a plea to the only one who mends me
(Dm)
'cause really I don't belong
[ Tab from: http://www.guitaretab.com/m/misc-unsigned-bands/76958.html ]
BRIDGE:
E-shaped Bar Chords
A               Bb
I don't belong, I don't belong
F
And I can't shake this feeling
A               Bb
I don't belong, yeah I don't belong
F
And it's what keeps me kneeling
A               Bb
I don't belong, yeah I don't belong
F
And it's my fate I'm sealing
A               Bb                   F
I don't belong, yeah I don't belong, yeah I don't belong
Yeah I don't


CHORUS:
Dm        Am                 Bb            F
I don't belong, with all the fumes and the fuss
           Dm                      Am
I don't belong to a world that has gone
           Bb           F
Astray and does what it must, to get along.
Dm            Am               Bb            F
Though I'm no model child, for sacrifice and self-denial
Dm                   Am                  Bb                   F
But I still don't belong here, I don't belong yeah, I don't belong
So take me home


Solo:
------------------------------------------------------15-----15-16-----|
---------------16--16-16-16-16b17-17r16--14--13---13-----13------------|
-13---13-12-13---------------------------------------------------------|
-----------------------------------------------------------------------|
-----------------------------------------------------------------------|
-----------------------------------------------------------------------|

-----------------------------13---15--16-18-18-18b19r18-18b19r18-16-15-|
---------------16--16~16~16~-------------------------------------------|
-13---13-12-13---------------------------------------------------------|
-----------------------------------------------------------------------|
-----------------------------------------------------------------------|
-----------------------------------------------------------------------|

CHORUS 2:
Dm        Am                Bb            F
I don't belong with all the fumes and the fuss
           Dm                      Am
I don't belong to a world that has gone
           Bb           F
Astray and does what it must, to get along.
Dm        Am                Bb       F
I don't belong with all the ruin and rust
                 Dm
No,  I don't belong
                 Am
Here I don't belong
                 Bb
Yeah I don't belong
                 F
Yeah I don't belong
So take me home

Bar Chords:
Am A F

End.
Related for The Glory Sea - New Babylon tab