Song name
# A B C D E F G H I J K L M N O P Q R S T U V W X Y Z

Misc Unsigned Bands - Anarchists Of Society - Death Of Our Souls tab

Help us improve GuitareTab! Take a short survey!
Intro and Main Riff
Repeat 7 times

D|--15-16--14-14------|---15-16---------------|-15-16-15-16------------|
A|14-----17-----12-13-|-14-----17-12-13-12-13-|------------12-13-12-13-|
F|--------------------|-----------------------|------------------------|
C|--------------------|-----------------------|------------------------|
G|--------------------|-----------------------|------------------------|
C|--------------------|-----------------------|------------------------|

Riff 2
Repeat 3 times

|14-12-15-16--------11-|-12-12-----15-16------|
|-----------14-12-10---|------13-13-----------|
|----------------------|----------------------|
|----------------------|----------------------|
|----------------------|----------------------|
|----------------------|----------------------|

Riff 3
Repeat 4 times

|-----------------|-----------------|-----------------|-----------------|
|-----------------|-----------------|-----------------|-----------------|
|-----------------|-----------------|-----------------|-----------------|
|5-5-5-5-5-5------|5-5-5-5-5-5------|1-1-1-1-1-1------|1-1-1-1-1-1------|
|3-3-3-3-3-3------|3-3-3-3-3-3------|1-1-1-1-1-1------|1-1-1-1-1-1------|
|-----------------|-----------------|1-1-1-1-1-1------|1-1-1-1-1-1------|

Intro & Main Riff X2
Riff 2 X2
Riff 3 X2
Related for Anarchists Of Society - Death Of Our Souls tab