Song name
# A B C D E F G H I J K L M N O P Q R S T U V W X Y Z

Misc Unsigned Bands - Witnesses Of Change - Living For Fame And Fortune tab

www.witnessesofchange.moonfruit.com

Official Website of Witnesses of Change

Band: Witnesses of Change
Song: Living for Fame and Fortune
Tabbed by: Guitarist of Witnesses of Change

This tab is absolutely perfect because me the one who plays it is tabbing it out.

Intro/Verse 1

e ---------------------------------------------------------------------|
b ---------------------------------------------------------------------|
g --------------------------5-5-5-5----3-3-3-3----2-2-2-2--------------|
D ---5-5-5-5----5-5-5-5----3-3-3-3----1-1-1-1----0-0-0-0---------------|
A --5-5-5-5----5-5-5-5----3-3-3-3----1-1-1-1----0-0-0-0----------------|
D -5-5-5-5----5-5-5-5--------------------------------------------------|
 PM.......................................................

e -------------------------------------------------------------------------|
b -------------------------------------------------------------------------|
g ---------------5-5-5-5----3-3-3-3----2-2-2-2-----------------------------|
D ---5-5-5-5----3-3-3-3----1-1-1-1----0-0-0-0------------------------------|
A --5-5-5-5----3-3-3-3----1-1-1-1----0-0-0-0-------------------------------|
D -5-5-5-5-----------------------------------------------------------------|
 PM..........................Open


Chorus w/ distortion

e ---------------------------------------------------------------------|
b ---------------------------------------------------------------------|
g --------------5------------3-------------2---------------------------|
D -5------------5------------1-------------0------------4-2------------|
A -5------------3------------1-------------0------------4-2------------|
D -5----------------------------------------------------4-2------------|

e ---------------------------------------------------------------------|
b ---------------------------------------------------------------------|
g --------------5------------3-------------2---------------------------|
D -5------------5------------1-------------0-----------12/0------------|
A -5------------3------------1-------------0-----------12/0------------|
D -5---------------------------------------------------12/0------------|


Verse 2

e ---------------------------------------------------------------------|
b ---------------------------------------------------------------------|
g ---------------5-5-5-5----3-3-3-3----2-2-2-2-------------------------|
D ---5-5-5-5----3-3-3-3----1-1-1-1----0-0-0-0--------------------------|
A --5-5-5-5----3-3-3-3----1-1-1-1----0-0-0-0---------------------------|
D -5-5-5-5-------------------------------------------------------------|
 PM...........................................

e ---------------------------------------------------------------------|
b ---------------------------------------------------------------------|
g ---------------5-5-5-5----3-3-3-3----2-2-2-2-------------------------|
D ---5-5-5-5----3-3-3-3----1-1-1-1----0-0-0-0--------------------------|
A --5-5-5-5----3-3-3-3----1-1-1-1----0-0-0-0---------------------------|
D -5-5-5-5-------------------------------------------------------------|
 PM.......................... Open

Chorus w/ distortion

e ---------------------------------------------------------------------|
b ---------------------------------------------------------------------|
g --------------5------------3-------------2---------------------------|
D -5------------5------------1-------------0------------4-2------------|
A -5------------3------------1-------------0------------4-2------------|
D -5----------------------------------------------------4-2------------|

e ---------------------------------------------------------------------|
b ---------------------------------------------------------------------|
g --------------5------------3-------------2---------------------------|
D -5------------5------------1-------------0-----------12/0------------|
A -5------------3------------1-------------0-----------12/0------------|
D -5---------------------------------------------------12/0------------|


Bridge w/ Distortion

e ---------------------------------------------------------------------|
b ---------------------------------------------------------------------|
g ------------4----------------4(Let it Ring)--------------------------|
D -22--5----4---4-3--2--5----4-----------------------------------------|
A -22---5-3----------2---5-3-------------------------------------------|
D -22----------------2-------------------------------------------------|

Chorus w/ distortion

e ---------------------------------------------------------------------|
b ---------------------------------------------------------------------|
g --------------5------------3-------------2---------------------------|
D -5------------5------------1-------------0------------4-2------------|
A -5------------3------------1-------------0------------4-2------------|
D -5----------------------------------------------------4-2------------|

e ---------------------------------------------------------------------|
b ---------------------------------------------------------------------|
g --------------5------------3-------------2---------------------------|
D -5------------5------------1-------------0---------------------------|
A -5------------3------------1-------------0---------------------------|
D -5-------------------------------------------------------------------|
Tap to rate this tab
# A B C D E F G H I J K L M N O P Q R S T U V W X Y Z