Song name
# A B C D E F G H I J K L M N O P Q R S T U V W X Y Z

Misc Unsigned Bands - Eccentric Amalgation - Crazy Lemonade tab

Eccentric Amalgamation 

************************************************************************
1. Crazy Lemonade
************************************************************************

Intro

|----------------------------|
|----------------------------|
|-[7]---------[5]------------|
|-----[7]-[5]-----[7]-[5]----|
|----------------------------|
|----------------------------|

Verse

|---------------|
|---------------|
|----------9----|
|-7--4--9--x----|
|-x--x--x--7----|
|-5--2--7-------|

Chorus

|---------0----0----|
|---------0----0----|
|---------1--4-1----|
|-x-x-x-x-2--4-2----|
|-x-x-x-x-2--2-2----|
|-x-x-x-x-0----0----|

Bridge

|------|
|------|
|------|
|-4/6--|
|-4/6--|
|-2/4--|

Song Layout

Intro 4x, Verse 2x
Verse 4x
Chorus 4x 
Verse 4x
Chorus 4x
Bridge 8x
Chorus 4x

Legend

[#] = Natural Harmonics
X = Muted Note
/ = Slide
Tap to rate this tab
# A B C D E F G H I J K L M N O P Q R S T U V W X Y Z