Song name
# A B C D E F G H I J K L M N O P Q R S T U V W X Y Z

Misc Unsigned Bands - Nab Jerkers - Butt Cake For Breakfast tab

Help us improve GuitareTab! Take a short survey!
Bret Dundale was the drummer 4 this album
but left because he thought they were dumb.

THIS IS THE RIGHT VERSION!!!!!!!!
the other version is right in parts

Intro
---------------------------------|
---------------------------------|
-0-0-----------0-0-----------0-0-|
-4-5-----------4-5-----------4-5-|
-3-4-2-3-2-3-2-3-4-2-3-2-3-2-3-4-|
-0-0-----------0-0-----------0-0-|
Verse
---------------------------------|---------------------------------|
---------------------------------|---------------------------------|
-0-0-----------0-0-----------0-0-|-0-0-----------0-0-----------0-0-|
-4-5-----------4-5-----------4-5-|-4-5-----------4-5-----------4-5-|
-3-4-2-3-2-3-2-3-4-2-3-2-3-2-3-4-|-3-4-2-3-2-3-2-3-4-2-3-2-3-2-3-4-|
-0-0-----------0-0-----------0-0-|-0-0-----------0-0-----------0-0-|


Chorus  this part was right
-------------------------|-------------------------|
-------------------------|-------------------------|
-------5-4-3-------5-4-3-|-------5-4-3-------5-4-3-|
-4-5-6-5-4-3-4-5-6-5-4-3-|-4-5-6-5-4-3-4-5-6-5-4-3-|
-4-5-6-5-4-3-4-5-6-5-4-3-|-4-5-6-5-4-3-4-5-6-5-4-3-|
-4-5-6-------4-5-6-------|-4-5-6-------4-5-6-------|

Verse
---------------------------------|---------------------------------|
---------------------------------|---------------------------------|
-0-0-----------0-0-----------0-0-|-0-0-----------0-0-----------0-0-|
-4-5-----------4-5-----------4-5-|-4-5-----------4-5-----------4-5-|
-3-4-2-3-2-3-2-3-4-2-3-2-3-2-3-4-|-3-4-2-3-2-3-2-3-4-2-3-2-3-2-3-4-|
-0-0-----------0-0-----------0-0-|-0-0-----------0-0-----------0-0-|

Chorus
-------------------------|-------------------------|
-------------------------|-------------------------|
-------5-4-3-------5-4-3-|-------5-4-3-------5-4-3-|
-4-5-6-5-4-3-4-5-6-5-4-3-|-4-5-6-5-4-3-4-5-6-5-4-3-|
-4-5-6-5-4-3-4-5-6-5-4-3-|-4-5-6-5-4-3-4-5-6-5-4-3-|
-4-5-6-------4-5-6-------|-4-5-6-------4-5-6-------|

Verse
---------------------------------|---------------------------------|
---------------------------------|---------------------------------|
-0-0-----------0-0-----------0-0-|-0-0-----------0-0-----------0-0-|
-4-5-----------4-5-----------4-5-|-4-5-----------4-5-----------4-5-|
-3-4-2-3-2-3-2-3-4-2-3-2-3-2-3-4-|-3-4-2-3-2-3-2-3-4-2-3-2-3-2-3-4-|
-0-0-----------0-0-----------0-0-|-0-0-----------0-0-----------0-0-|

Chorus
-------------------------|-------------------------|
-------------------------|-------------------------|
-------5-4-3-------5-4-3-|-------5-4-3-------5-4-3-|
-4-5-6-5-4-3-4-5-6-5-4-3-|-4-5-6-5-4-3-4-5-6-5-4-3-|
-4-5-6-5-4-3-4-5-6-5-4-3-|-4-5-6-5-4-3-4-5-6-5-4-3-|
-4-5-6-------4-5-6-------|-4-5-6-------4-5-6-------|

Outro
-------------------------------------|
-------------------------------------|
-0-0-----------0-0-----------0-0-0-0-|
-4-5-----------4-5-----------4-5-4-5-|
-3-4-2-3-2-3-2-3-4-2-3-2-3-2-3-4-3-4-|
-0-0-----------0-0-----------0-0-0-0-|
Related for Nab Jerkers - Butt Cake For Breakfast tab