Song name
# A B C D E F G H I J K L M N O P Q R S T U V W X Y Z

Misc Unsigned Bands - University Of Texas - The Eyes Of Texas tab

-------------------------------------------------------------------------------
			     THE EYES OF TEXAS - The University of Texas
-------------------------------------------------------------------------------
Tabbed by: George
Email:

Tuning:

e|----0---0---0--2--4---0----5--5--1--3--4------0---0---0--2--4--0-----------|
B|--0---0---0---------------------------------0---0---0----------------------|
G|---------------------------------------------------------------------------|
D|---------------------------------------------------------------------------|
A|---------------------------------------------------------------------------|
E|---------------------------------------------------------------------------|

e|--4--4--2--2--4--2------2--2--1-1--2--4--0--------5--5--1-1--2--3--4-------|
B|--------------------------------------------0--0---------------------------|
G|---------------------------------------------------------------------------|
D|---------------------------------------------------------------------------|
A|---------------------------------------------------------------------------|
E|---------------------------------------------------------------------------|

e|----0---0---0--2--4--0-----4--4--4--2--2--0--------------------------------|
B|--0---0---0----------------------------------------------------------------|
G|---------------------------------------------------------------------------|
D|---------------------------------------------------------------------------|
A|---------------------------------------------------------------------------|
E|---------------------------------------------------------------------------|
Tap to rate this tab
 
# A B C D E F G H I J K L M N O P Q R S T U V W X Y Z