Song name
# A B C D E F G H I J K L M N O P Q R S T U V W X Y Z

Misc Unsigned Bands - Sunday Hop - Break Free tab

-------------------------------------------------------------------------------
			     Break Free - Sunday Hop
-------------------------------------------------------------------------------
Tabbed by: T Burke
Email: burkefilms@yahoo.com

Tuning: standard EADGBe

Intro 

Guitar 1 (x4)
e|------------------------------------|
B|------------------------------------|
G|------------------------------------|
D|-----3p0-5-3-------------3p0-5-3----|  
A|-3p0---------5-4-3p0-3p0---------5--|
E|------------------------------------|

Guitar 2 (x2)
e|---------------------------------|
B|---------------------------------|
G|---------------5-----------------|
D|-7--7--7-7-7-5-5-7--7--7-7-7-5---|  
A|-7--7--7-7-7-5-3-7--7--7-7-7-5---|
E|-5--5--5-5-5-3---5--5--5-5-5-3---|

Verse

Guitar 1
e|-------------------------------------------------------------------|
B|-------------------------------------------------------------------|
G|---------------------5-7b9-5--------------------------5-7b9-5------|
D|-------------5----------------7-7-------------5---------------7-7--|
A|-7-7-5h7-5h7---7-7-7--------------7-7-5h7-5h7---7-7-7--------------|
E|-5-5-------------5-5--------------5-5-------------5-5--------------|

e|---------------------------------------------------17\0-12\0|
B|------------------------------------------------------------|
G|------------------------------------------------------------|
D|------------------------------------------------------------|
A|-10-10-7/10-12-10----12-12-10/12-15-12\5--7-----------------|
E|-8--8-------------12-10-10----------------5-----------------|

Guitar 2
e|-------------------------------------------------------|
B|-------------------------------------------------------|
G|-------------------------------------------------------|
D|-7-7-------------7-7--------------7-7-------------7-7--|  
A|-7-7-------------7-7--------------7-7-------------7-7--|
E|-5-5-------------5-5--------------5-5-------------5-5--|

e|---------------------------------------------|
B|---------------------------------------------|
G|---------------------------------------------|
D|-10-10---------------12-12----------------7--|  
A|-10-10---------------12-12----------------7--|
E|-8-8-----------------10-10----------------5--|

Refrain

Guitar 1 (x2)
e|------------------------------------|
B|------------------------------------|
G|------------------------------------|
D|-----3p0-5-3-------------3p0-5-3----|  
A|-3p0---------5-4-3p0-3p0---------5--|
E|------------------------------------|

Guitar 2 (x2)
e|---------------------------------|
B|---------------------------------|
G|---------------5-----------------|
D|-7--7--7-7-7-5-5-7--7--7-7-7-5---|  
A|-7--7--7-7-7-5-3-7--7--7-7-7-5---|
E|-5--5--5-5-5-3---5--5--5-5-5-3---|

Verse

Guitar 1
e|-------------------------------------------------------------------|
B|-------------------------------------------------------------------|
G|---------------------5-7b9-5--------------------------5-7b9-5------|
D|-------------5----------------7-7-------------5---------------7-7--|
A|-7-7-5h7-5h7---7-7-7--------------7-7-5h7-5h7---7-7-7--------------|
E|-5-5-------------5-5--------------5-5-------------5-5--------------|

e|------------------------------------------------22p20/20p17/17p15/15p12/12p10/10p8-5--|
B|--------------------------------------------------------------------------------------|
G|--------------------------------------------------------------------------------------|
D|--------------------------------------------------------------------------------------|
A|-10-10-7/10-12-10----12-12-10/12-15-12\5--7-------------------------------------------|
E|-8--8-------------12-10-10----------------5-------------------------------------------|

Guitar 2
e|-------------------------------------------------------|
B|-------------------------------------------------------|
G|-------------------------------------------------------|
D|-7-7-------------7-7--------------7-7-------------7-7--|  
A|-7-7-------------7-7--------------7-7-------------7-7--|
E|-5-5-------------5-5--------------5-5-------------5-5--|

e|---------------------------------------------|
B|---------------------------------------------|
G|---------------------------------------------|
D|-10-10---------------12-12----------------7--|  
A|-10-10---------------12-12----------------7--|
E|-8-8-----------------10-10----------------5--|

Refrain

Guitar 1 (x2)
e|------------------------------------|
B|------------------------------------|
G|------------------------------------|
D|-----3p0-5-3-------------3p0-5-3----|  
A|-3p0---------5-4-3p0-3p0---------5--|
E|------------------------------------|

Guitar 2 (x2)
e|---------------------------------|
B|---------------------------------|
G|---------------5-----------------|
D|-7--7--7-7-7-5-5-7--7--7-7-7-5---|  
A|-7--7--7-7-7-5-3-7--7--7-7-7-5---|
E|-5--5--5-5-5-3---5--5--5-5-5-3---|

Guitar 1
Improvisional Solo in D

Guitar 2
e|---------------------------------|
B|---------------------------------|
G|---------------5-----------------|
D|-7--7--7-7-7-5-5-7--7--7-7-7-5---|  
A|-7--7--7-7-7-5-3-7--7--7-7-7-5---|
E|-5--5--5-5-5-3---5--5--5-5-5-3---|

Outro

Guitar 1 (x4)
e|------------------------------------|
B|------------------------------------|
G|------------------------------------|
D|-----3p0-5-3-------------3p0-5-3----|  
A|-3p0---------5-4-3p0-3p0---------5--|
E|------------------------------------|

Guitar 2 (x4)
e|---------------------------------|
B|---------------------------------|
G|---------------5-----------------|
D|-7--7--7-7-7-5-5-7--7--7-7-7-5---|  
A|-7--7--7-7-7-5-3-7--7--7-7-7-5---|
E|-5--5--5-5-5-3---5--5--5-5-5-3---|

End with breakdown; Guitar 1 hyperpicks and runs up the scale; Guitar 2 plays chords on D scale

| /  slide up
| \  slide down
| h  hammer-on
| p  pull-off
| b  bend
| *  pinch harmonic
| ~  vibrato
| +  harmonic
| x  Mute note
===============================================================================
Tap to rate this tab
# A B C D E F G H I J K L M N O P Q R S T U V W X Y Z