Song name
# A B C D E F G H I J K L M N O P Q R S T U V W X Y Z

Misc Unsigned Bands - Akolyte - Wandering tab

-------------------------------------------------------------------------------
			     WANDERING - Akolyte
-------------------------------------------------------------------------------
Tabbed by: Nathan Puls
Email: akolyte@gmail.com

Tuning: DADGBE

Intro
Guitar 1
e|---------------------------------------------------------------------------------|
B|---------------------------------------------------------------------------------|
G|---------------------------------------------------------------------------------|
D|-------11-11-11---11-------11-11-11--11------11-11-11--11-11-11-11-11-11-11-11-11|
A|-9-9-9----------9----0-0-0----------0---------------------9--9--9--9--9--9--9--9-|
E|----------------------------------------0-0-0---------0---9--9--9--9--9--9--9--9-|

Guitar 2
e|------------------------------------------|
B|------------------------------------------|
G|------------------------------------------|
D|-4-4--4-4-7-7--7-7-0-0--0-0-2-2--2--2--2--|
A|-4-4--4-4-7-7--7-7-0-0--0-0-2-2--2--2--2--|
E|-4-4--4-4-7-7--7-7-0-0--0-0-2-2--2--2--2--|

Guitar 3
e|----------------------------------|
B|----------------------------------|
G|----------------------------------|
D|-6-6-6-6-9-9-9-9-2-2-2-2-4-4-4-4--|
A|-4-4-4-4-7-7-7-7-0-0-0-0-2-2-2-2--|
E|-4-4-4-4-7-7-7-7-0-0-0-0-2-2-2-2--|

Verse
      I look back see what we've gone through...
e|------------------------------------------|
B|------------------------------------------|
G|------------------------------------------|
D|-4-4--4-4-7-7--7-7-0-0--0-0-2-2--2--2--2--|
A|-4-4--4-4-7-7--7-7-0-0--0-0-2-2--2--2--2--|
E|-4-4--4-4-7-7--7-7-0-0--0-0-2-2--2--2--2--|

2nd part of verse
And I tried to be someone you could trust...
e|------------------------------------------------------------------|
B|------------------------------------------------------------------|
G|------------------------------------------------------------------|
D|-4-4-4-4-4-4-4-4-7-7-7-7-7-7-7-7-0-0-0-0-0-0-0-0-2-2-2-2-2-2-2-2--|
A|-4-4-4-4-4-4-4-4-7-7-7-7-7-7-7-7-0-0-0-0-0-0-0-0-2-2-2-2-2-2-2-2--|
E|-4-4-4-4-4-4-4-4-7-7-7-7-7-7-7-7-0-0-0-0-0-0-0-0-2-2-2-2-2-2-2-2--|

Pre-Chorus
And I've been walking around for so long...
e|----------------------------------|
B|----------------------------------|
G|----------------------------------|
D|-6-6-6-6-9-9-9-9-2-2-2-2-4-4-4-4--|
A|-4-4-4-4-7-7-7-7-0-0-0-0-2-2-2-2--|
E|-4-4-4-4-7-7-7-7-0-0-0-0-2-2-2-2--|

Chorus
And I've been wandering...
e|------------------------------------------------------------------|
B|------------------------------------------------------------------|
G|------------------------------------------------------------------|
D|-6-6-6-6-6-6-6-6-9-9-9-9-9-9-9-9-2-2-2-2-2-2-2-2-4-4-4-4-4-4-4-4--|
A|-4-4-4-4-4-4-4-4-7-7-7-7-7-7-7-7-0-0-0-0-0-0-0-0-2-2-2-2-2-2-2-2--|
E|-4-4-4-4-4-4-4-4-7-7-7-7-7-7-7-7-0-0-0-0-0-0-0-0-2-2-2-2-2-2-2-2--|

Bridge (Guitar 1)
Under your wings...
e|-----------------------------|
B|-----------------------------|
G|-----------------------------|
D|-4-4--0-0--4-4--0-0----------|
A|-4-4--0-0--4-4--0-0----------|
E|-4-4--0-0--4-4--0-0--Repeat--|

Bridge (Guitar 2)
e|----0----0-----0---0---4---5---7---5-----------------------------------------------|
B|----5----5-----5---5---5---5---5---5-----------------------------------------------|
G|-----------------------------------------------------------------------------------|
D|-----------------------------------------------------------------------------------|
A|-----------------------------------------------------------------------------------|
E|-----------------------------------------------------------------------------------|

2nd part of Bridge (2nd Guitar)
When I see the things you do...
e|---------------------------------------------------------------------------|
B|---------------------------------------------------------------------------|
G|---------------------------------------------------------------------------|
D|--6-6-6-6-6-6-6-6-7-7-7-7-7-7-7-7-9-9-9-9-9-9-9-9-11-11-11-11-11-11-11-11--|
A|---------------------------------------------------------------------------|
E|---------------------------------------------------------------------------|

| /  slide up
| \  slide down
| h  hammer-on
| p  pull-off
| ~  vibrato
| +  harmonic
| x  Mute note
===============================================================================
Tap to rate this tab
# A B C D E F G H I J K L M N O P Q R S T U V W X Y Z