Song name
# A B C D E F G H I J K L M N O P Q R S T U V W X Y Z

Misc Unsigned Bands - The Joe Pirret Experience - The Dark tab

Help us improve GuitareTab! Take a short survey!
----------------------------------------------------------------------------
		   The Dark - The Joe Pirret Experience
----------------------------------------------------------------------------
Tabbed by: Pirret67
Email: thejoepirretexperience@hotmail.com
Myspace: www.myspace.com/thejoepirretexperience
Tuning: Standard

Intro/Verse:
e|---------------|-------------------|---------------|---------------||
B|---------------|-------------------|---------------|---------------||
G|---------------|-------------------|---------------|---------------||
D|-7--7--7-7-7-7-|-9---9-10-10-10-10-|-3--3--3-3-3-3-|-5---5-6-6-6-6-||
A|-7--7--7-7-7-7-|-9---9-10-10-10-10-|-3--3--3-3-3-3-|-5---5-6-6-6-6-||
E|-5--5--5-5-5-5-|-7---7-8--8--8--8--|-1--1--1-1-1-1-|-3---3-4-4-4-4-||


^ that x8

Pre Chorus:

e|---------------|---------------|---------------|---------------||
B|---------------|---------------|---------------|---------------||
G|---------------|---------------|---------------|---------------||
D|-7--7--7-7-7-7-|-5---5-6-6-6-6-|-7--7--7-7-7-7-|-3---3-5-5-5-5-||
A|-7--7--7-7-7-7-|-5---5-6-6-6-6-|-7--7--7-7-7-7-|-3---3-5-5-5-5-||
E|-5--5--5-5-5-5-|-3---3-4-4-4-4-|-5--5--5-5-5-5-|-1---1-3-3-3-3-||

^ that x2

Chorus:

e|-----------------|-----------------|------------------|---------------||
B|-----------------|-----------------|------------------|---------------||
G|-----------------|-----------------|------------------|---------------||
D|-7-7-7-7-7-7-7-7-|-7-7-7-7-7-7-7-7-|-7--7-7-3-3-5-5-7-|-7-7-3-3-5-5-7-||
A|-7-7-7-7-7-7-7-7-|-7-7-7-7-7-7-7-7-|-7--7-7-3-3-5-5-7-|-7-7-3-3-5-5-7-||
E|-5-5-5-5-5-5-5-5-|-5-5-5-5-5-5-5-5-|-5--5-5-1-1-3-3-5-|-5-5-1-1-3-3-5-||

^ that x2

Bridge:

e|-------------|-------------|-------------|-------------|-------------|
B|-------------|-------------|-------------|-------------|-------------|
G|-------5--5--|-7--7--9--9--|-------5--5--|-9--9--9--9--|-------5--5--|
D|-7--7--5--5--|-7--7--9--9--|-7--7--5--5--|-9--9--9--9--|-7--7--5--5--|
A|-7--7--3--3--|-5--5--7--7--|-7--7--3--3--|-7--7--7--7--|-7--7--3--3--|
E|-5--5--------|-------------|-5--5--------|-------------|-5--5--------|

e|-------------|-------------|-------------||
B|-------------|-------------|-------------||
G|-7--7--9--9--|-------5--5--|-7--7--------||
D|-7--7--9--9--|-7--7--5--5--|-7--7--7--7--||
A|-5--5--7--7--|-7--7--3--3--|-5--5--7--7--||
E|-------------|-5--5--------|-------5--5--||


Outro:

e|-------------------------------------------------------||
B|-------------------------------------------------------||
G|-------------------------------------------------------||
D|-7--7--7--7--|-6--6--6--6--|-5--5--5--5--|-3--3--3--7--||
A|-7--7--7--7--|-6--6--6--6--|-5--5--5--5--|-3--3--3--7--||
E|-5--5--5--5--|-4--4--4--4--|-3--3--3--3--|-1--1--1--5--||


Song Order.

Intro.
Verse.
Chorus.
Verse.
Chorus.
Bridge.
Chorus.
Verse.
Chorus.
Outro.

I belive thats it! if you want to add anything to the song - or if you have any suggestions email me!

thejoepirretexperience@hotmail.com

cheers.









Related for The Joe Pirret Experience - The Dark tab