Song name
# A B C D E F G H I J K L M N O P Q R S T U V W X Y Z

Misc Unsigned Bands - Dicks In The Sun - She Is Naked tab

Help us improve GuitareTab! Take a short survey!
This took a lot of hard work

|--------------------------------7--6--7--8-----------|
|--------------------------------7--6--7--8-----------|
|--------------------------------7--6--7--8-----------|
|-7--7-8---0-7-6--5--6-7----7--7--6--7--8---8-0-0-7-7-|
|-7--7-8----------5--6---8--7--7--6--7--8---8---------|
|-7------7---7-6--5----7-8--7--7--6--7--8---------7-7-|

|-----------------------------------|
|-----------------------------------|
|-----------------------------------|
|-7-8-0-0-7-7-6-5--6-7-6-5--6-7-6-5-|
|-7-8-----------5--6-----5--6-----5-|
|---------7-7-6-5----7-6-5----7-6-5-|

|-------------------------------------|
|-------------------------------------|
|-------------------------------------|
|--6-7-6-5--6-7-6-5--6-7-6-5--6-7-6-5-|
|--6-----5--6-----5--6-----5--6-----5-|
|----7-6-5----7-6-5----7-6-5----7-6-5-|

|-----------------------------------|
|-----------------------------------|
|-----------------------------------|
|-7-8-0-0-7-7-6-5--6-7-6-5--6-7-6-5-|
|-7-8-----------5--6-----5--6-----5-|
|---------7-7-6-5----7-6-5----7-6-5-|

|-------------------------------------|
|-------------------------------------|
|-------------------------------------|
|--6-7-6-5--6-7-6-5--6-7-6-5--6-7-6-5-|
|--6-----5--6-----5--6-----5--6-----5-|
|----7-6-5----7-6-5----7-6-5----7-6-5-|

|-------------------------------------|
|-------------------------------------|
|-------------------------------------|
|--6-7-6-5--6-7-6-5--6-7-6-5--6-7-6-5-|
|--6-----5--6-----5--6-----5--6-----5-|
|----7-6-5----7-6-5----7-6-5----7-6-5-|
Related for Dicks In The Sun - She Is Naked tab