Song name
# A B C D E F G H I J K L M N O P Q R S T U V W X Y Z

Misc Unsigned Bands - Sanctity - Why Does tab

This is a great song by a great band that played at ResLife. I have allways wanted
to tab a song and I think they need some more recognition for the great songs they
have wrote.  Enjoy

Key: t=Pluck on first note then hammer on and pull of until space in tab.


NOTE: On the bridge and in the verses there is a downward scale played off
the E10 every other group. Just improvise on it it can be fun.
Intro:
    Guitar 1                                               Drums in Here

--------10-------10-10-10------10------10-10-10--------10-------10-10-10-|
--t7878----t7878---------t7878---t7878----------t7878-----t7878----------|
-------------------------------------------------------------------------|
-------------------------------------------------------------------------|
-------------------------------------------------------------------------|
-------------------------------------------------------------------------|
    Guitar 2                                               Drums in here
------------------------------------------------------------------------|
-------------------------t7878-8--t7878-8-8--8--t7878-8---t7878--8--8-8-|
------------------------------------------------------------------------|
------------------------------------------------------------------------|
------------------------------------------------------------------------|
------------------------------------------------------------------------|

   Guitar 1                                   Drum Riff
---------10--------10-10-10--------10---------10-10-10-----------------|
--t7878-----t7878-----------t7878------t7878---------------------------|
-----------------------------------------------------------------------|
-----------------------------------------------------------------------|
-----------------------------------------------------------------------|
-----------------------------------------------------------------------|
    Guitar 2
-----------------------------------------------------------------------|
--t7878--8--t7878--8--8--8--t7878---8--t7878---8--8--8-----------------|
-----------------------------------------------------------------------|
-----------------------------------------------------------------------|
-----------------------------------------------------------------------|
-----------------------------------------------------------------------|



   Guitar 1                                   Drum In For Song
---------10--------10-10-10--------10---------10-10-10-----------------|
--t7878-----t7878-----------t7878------t7878---------------------------|
-----------------------------------------------------------------------|
-----------------------------------------------------------------------|
-----------------------------------------------------------------------|
-----------------------------------------------------------------------|
    Guitar 2
-----------------------------------------------------------------------|
--t7878--8--t7878--8--8--8--t7878---8--t7878---8--8--8-----------------|
-----------------------------------------------------------------------|
-----------------------------------------------------------------------|
-----------------------------------------------------------------------|
-----------------------------------------------------------------------|


   Guitar 1
---------10--------10-10-10--------10---------10-10-10-----------------|
--t7878-----t7878-----------t7878------t7878---------------------------|
-----------------------------------------------------------------------|
-----------------------------------------------------------------------|
-----------------------------------------------------------------------|
-----------------------------------------------------------------------|
    Guitar 2
-----------------------------------------------------------------------|
--t7878--8--t7878--8--8--8--t7878---8--t7878---8--8--8-----------------|
-----------------------------------------------------------------------|
-----------------------------------------------------------------------|
-----------------------------------------------------------------------|


   Guitar 1
---------10--------10-10-10--------10---------10-10-10-----------------|
--t7878-----t7878-----------t7878------t7878---------------------------|
-----------------------------------------------------------------------|
-----------------------------------------------------------------------|
-----------------------------------------------------------------------|
-----------------------------------------------------------------------|
    Guitar 2
-----------------------------------------------------------------------|
--t7878--8--t7878--8--8--8--t7878---8--t7878---8--8--8-----------------|
-----------------------------------------------------------------------|
-----------------------------------------------------------------------|
-----------------------------------------------------------------------|


   Guitar 1
---------10--------10-10-10--------10---------10-10-10-----------------|
--t7878-----t7878-----------t7878------t7878---------------------------|
-----------------------------------------------------------------------|
-----------------------------------------------------------------------|
-----------------------------------------------------------------------|
-----------------------------------------------------------------------|
    Guitar 2
-----------------------------------------------------------------------|
--t7878--8--t7878--8--8--8--t7878---8--t7878---8--8--8-----------------|
-----------------------------------------------------------------------|
-----------------------------------------------------------------------|
-----------------------------------------------------------------------|

   Guitar 1
---------10--------10-10-10--------10---------10-10-10-----------------|
--t7878-----t7878-----------t7878------t7878---------------------------|
-----------------------------------------------------------------------|
-----------------------------------------------------------------------|
-----------------------------------------------------------------------|
-----------------------------------------------------------------------|
    Guitar 2
-----------------------------------------------------------------------|
--t7878--8--t7878--8--8--8--t7878---8--t7878---8--8--8-----------------|
-----------------------------------------------------------------------|
-----------------------------------------------------------------------|
-----------------------------------------------------------------------|

   Guitar 1
---------10--------10-10-10-|
--t7878-----t7878-----------|
----------------------------|
----------------------------|
----------------------------|
----------------------------|
    Guitar 2
----------------------------|
--t7878--8--t7878--8--8--8--|
----------------------------|
----------------------------|
----------------------------|
----------------------------|

Listen for struming pattern

   Guitars 1 & 2
-----------------------------------------------------------------------|
-----------------------------------------------------------------------|
---2-----------2-----------2-----------2-------------------------------|
---0--2--4-----0--2--4-----0--2--4-----0--2--4-------------------------|
------0--2--5-----0--2--5-----0--2--5-----0--2--5----------------------|
------------3-----------3-----------3-----------3----------------------|


VERSE:
    Palm Mute and Listen for Struming patern

    Guitar 1
-----------------------------------------------------------------------|
-----------------------------------------------------------------------|
---2-----------2-----------2-----------2-------------------------------|
---0--2--4-----0--2--4-----0--2--4-----0--2--4-------------------------|
------0--2--5-----0--2--5-----0--2--5-----0--2--5----------------------|
------------3-----------3-----------3-----------3----------------------|
    Guitar 2
-----------------------------------------------------------------------|
----------------7-8-10------7-8-10------7-8-10-------------------------|
-----------------------------------------------------------------------|
-----------------------------------------------------------------------|
-----------------------------------------------------------------------|
-----------------------------------------------------------------------|


    Guitar 1
-----------------------------------------------------------------------|
-----------------------------------------------------------------------|
---2-----------2-----------2-----------2-------------------------------|
---0--2--4-----0--2--4-----0--2--4-----0--2--4-------------------------|
------0--2--5-----0--2--5-----0--2--5-----0--2--5----------------------|
------------3-----------3-----------3-----------3----------------------|
    Guitar 2
-----------------------------------------------------------------------|
----7-8-10------7-8-10------7-8-10------7-8-10-------------------------|
-----------------------------------------------------------------------|
-----------------------------------------------------------------------|
-----------------------------------------------------------------------|
-----------------------------------------------------------------------|


    Guitar 1
--------------------------|
--------------------------|
--------------------------|
---0-----------0----------|
------0--2--------0--2----|
------------3-----------3-|
    Guitar 2
--------------------------|
----7-8-10------7-8-10----|
--------------------------|
--------------------------|
--------------------------|
--------------------------|

CHORUS: Repeat 4x
-----------------------------------------------------------------|
-----------------------------------------------------------------|
-----------------------------------------------------------------|
-----7-7-----9-9-------------------------------------------------|
-----5-5-----7-7-----9-9----7-7----------------------------------|
---------------------7-7----5-5----------------------------------|

Bridge:
---------10--------10-------10-------10------10------10-------10-|
---7-8--------7-8------7-8------7-8------7-8----7-8------7-8-----|
-----------------------------------------------------------------|
-----------------------------------------------------------------|
-----------------------------------------------------------------|
-----------------------------------------------------------------|
CHORUS: again
Tap to rate this tab
# A B C D E F G H I J K L M N O P Q R S T U V W X Y Z