Song name
# A B C D E F G H I J K L M N O P Q R S T U V W X Y Z

Misc Unsigned Bands - Rage Of Madness - A Day Of Hate tab

Help us improve GuitareTab! Take a short survey!
hi my name is wouter and this is the first song of my band :)
hope you like it

/:slide up
\:slide down

play this on : flanger reverb :
|---------------------------------------------------------------------------|
|------------------0---0----------------------------------------------------|
|--1---1---0---0--2---2-----------------------------------------------------|
|-2---2---2---2--2---2------------------------------------------------------|
|2---2---2---2--------------------------------------------------------------|
|---------------------------------------------------------------------------|

|---------------------------------------------------------------------------|
|------------------0---0----------------------------------------------------|
|--1---1---0---0--2---2-----------------------------------------------------|
|-2---2---2---2--2---2------------------------------------------------------|
|2---2---2---2--------------------------------------------------------------|
|---------------------------------------------------------------------------|


play this harder but only on : reverb :
|---------------------------------------------------------------------------|
|---------------------------------------------------------------------------|
|---------------------------------------------------------------------------|
|---------------------------------------------------------------------------|
|111--34-------34---333-4643---333-46---111--34-------34---333-4643-333-46--|
|---------222------------------------------------222------------------------|


play this whitout effects but realy hard :
|---------------------------------------------------------------------------|
|--------------------------------4-4-4-5-4-4-5-7-4-4-4-5-4-4-5-7------------|
|4-4-4-5-4-4-5-7-4-4-4-5-4-4-5-7-4-4-4-5-4-4-5-7-4-4-4-5-4-4-5-7------------|
|4-4-4-5-4-4-5-7-4-4-4-5-4-4-5-7-2-2-2-3-2-2-3-5-2-2-2-3-2-2-3-5------------|
|2-2-2-3-2-2-3-5-2-2-2-3-2-2-3-5--------------------------------------------|
|---------------------------------------------------------------------------|


|---------------------------------------------------------------------------|
|---------------------------------------------------------------------------|
|---------------------------------------------------------------------------|
|2-2-2-4-2-2-2-4-2-2-2-4-2-2-2-4-2-2-2-4-2-2-2-4----------------------------|
|2-2-2-4-2-2-2-4-2-2-2-4-2-2-2-4-2-2-2-4-2-2-2-4----------------------------|
|0-0-0-2-0-0-0-2-0-0-0-2-0-0-0-2-0-0-0-2-0-0-0-2----------------------------|


|---------------------------------------------------------------------------|
|---------------------------------------------------------------------------|
|--7/9\7-----7/9\7----7/9\7-----7/9\7---------------------------------------|
|2-7/9\7-2-2-7/9\7--2-7/9\7-2-2-7/9\7---------------------------------------|
|2-5/7\5-2-2-5/7\5--2-5/7\5-2-2-5/7\5---------------------------------------|
|0-------0-0--------0-------0-0---------------------------------------------|


|---------------------------------------------------------------------------|
|---------------------------------------------------------------------------|
|---------------------------------------------------------------------------|
|2-2-2-4-2-2-2-4-2-2-2-4-2-2-2-4-2-2-2-4-2-2-2-4----------------------------|
|2-2-2-4-2-2-2-4-2-2-2-4-2-2-2-4-2-2-2-4-2-2-2-4----------------------------|
|0-0-0-2-0-0-0-2-0-0-0-2-0-0-0-2-0-0-0-2-0-0-0-2----------------------------|

solo:
|---------------------------------------------------------------------------|
|---------------------------------------------------------------------------|
|1/11b12b11b12b11b12b14b11b12b11b12b11b12b15b/16b\15------------------------|
|---------------------------------------------------------------------------|
|---------------------------------------------------------------------------|
|---------------------------------------------------------------------------|


|---------------------------------------------------------------------------|
|11b12b11b12b11b12b14b11b12b11b12b11b12b15b/16b\15--------------------------|
|---------------------------------------------------------------------------|
|---------------------------------------------------------------------------|
|---------------------------------------------------------------------------|
|---------------------------------------------------------------------------|


|---------------------------------------------------------------------------|
|11b12b11b12b11b12b14b11b12b11b12b11b12b15b/16b\15--------------------------|
|11b12b11b12b11b12b14b11b12b11b12b11b12b15b/16b\15--------------------------|
|---------------------------------------------------------------------------|
|---------------------------------------------------------------------------|
|---------------------------------------------------------------------------|


|---------------------------------------------------------------------------|
|--------------------------------4-4-4-5-4-4-5-7-4-4-4-5-4-4-5-7------------|
|4-4-4-5-4-4-5-7-4-4-4-5-4-4-5-7-4-4-4-5-4-4-5-7-4-4-4-5-4-4-5-7------------|
|4-4-4-5-4-4-5-7-4-4-4-5-4-4-5-7-2-2-2-3-2-2-3-5-2-2-2-3-2-2-3-5------------|
|2-2-2-3-2-2-3-5-2-2-2-3-2-2-3-5--------------------------------------------|
|---------------------------------------------------------------------------|

|---------------------------------------------------------------------------|
|------------------0---0----------------------------------------------------|
|--1---1---0---0--2---2-----------------------------------------------------|
|-2---2---2---2--2---2------------------------------------------------------|
|2---2---2---2--------------------------------------------------------------|
|---------------------------------------------------------------------------|


thanks for watching this tab :)
you can contact me at : wouterhimpe@hotmail.com

Related for Rage Of Madness - A Day Of Hate tab