Song name
# A B C D E F G H I J K L M N O P Q R S T U V W X Y Z

Misc Unsigned Bands - Fiveboltmain - Life Of Mine tab

Artist: Five.Bolt.Main
Song: Life of Mine
Album: Venting
Tuning: drop Bb  .=palm mute x= mute strings
Email: LiquIdfir3@msn.com

This tab is not 100%, if you find mistakes please post them in the comments and ill 
Its in the ball park though, so rock on!
Intro:
c |-----x---x---x---|
G |-----x---x---x---|
Eb|-----x---x---x---|
Bb|---5-x-5-x-5-x-5-|
F |---5-x-5-x-5-x-5-|
Bb|---5-x-5-x-5-x-5-|


intro cont...
c |---------------------------|
G |---------------------------|
Eb|---------------------------|
Bb|---6-6-5-x--5-5-4----------|
F |---6-6-5-x--5-5-4----------|
Bb|---6-6-5-x--5-5-4---- <----|this leads to verse

                                              ^
                                              |
Verse:                                        |
c |----------------------                    ---|
G |----------------------                    ---|
Eb|---------------------- <---------------------|
Bb|---5-5-4--x--5-5-4--x------------------------|
F |---5-5-4--x--5-5-4--x------------------------|
Bb|---5-5-4--x--5-5-4--x------------------------| repeat as necessary
      . .       . .

Fill(during verse): (same guitar)
c |---------------------------------------|
G |---7h8p7-7-7h8p7-7-10---7h8p7-7-10-----|
Eb|-----------------------------------9*--| *im not sure about this part
Bb|---------------------------------------| it might be harmonic
F |---------------------------------------|
Bb|---------------------------------------|

Chorus:                            Play this as it flows into next verse
c |--------------------------(r)--|---------|           ---|
G |--------------------------(e)--|---------|           ---|
Eb|--------------------------(p)--|---------|           ---|
Bb|---7-7-7-7-9-9-9-9-5-5-5--(e)--|---5-5-4-| <------------|
F |---7-7-7-7-9-9-9-9-5-5-5--(a)--|---5-5-4----------------|
Bb|---7-7-7-7-9-9-9-9-5-5-5--(t)--|---5-5-4----------------|
                                      . .
"oh theres no happy ending to this life of mine..."


Bridge same as verse**

Bridge:
c |----------------------|
G |----------------------|
Eb|----------------------|
Bb|---5-5-4--x--5-5-4--x-|
F |---5-5-4--x--5-5-4--x-|
Bb|---5-5-4--x--5-5-4--x-|

Chorus (with no drums, use intro):
c |-----x---x---x---|
G |-----x---x---x---|
Eb|-----x---x---x---|
Bb|---5-x-5-x-5-x-5-|
F |---5-x-5-x-5-x-5-|
Bb|---5-x-5-x-5-x-5-|
"Fate can have its way with me let me do my time..."


c |--------------------|
G |--------------------|
Eb|--------------------|
Bb|---4--4--4--4-5-5-4-|
F |---4--4--4--4-5-5-4-|
Bb|---4--4--4--4-5-5-4-|
     "let me do my time..."(repeat)

Then Verse bit again,

end on
c |------|
G |------|
Eb|------|
Bb|---2--|
F |---2--|
Bb|---2--|
Tap to rate this tab
# A B C D E F G H I J K L M N O P Q R S T U V W X Y Z