Song name
# A B C D E F G H I J K L M N O P Q R S T U V W X Y Z

Misc Unsigned Bands - The Joe Pirret Experience - The Song tab

----------------------------------------------------------------------------
		   The Song - The Joe Pirret Experience
----------------------------------------------------------------------------
Tabbed by: Big Joe
Email: thejoepirretexperience@hotmail.com
Myspace: www.myspace.com/thejoepirretexperience
Tuning: Standard

Intro Riff: Guitar I
e|-------------------------------------------------------||
B|-------------------------------------------------------||
G|---------0-2-0---0-2-0---------------------------------||
D|-----0-2-------2-------2---1-2h5-5-4-3-2/7-5-3-0-----2-||
A|-0-2---------------------2-----------------------0-2---||
E|-------------------------------------------------------||

Intro Cords: Guitar II
e|-1-----------------------------3---2\1-0---0-0-0--0-1--||
B|-3-----------------------------3---2\1-0---4\3-2--0-3--||
G|-2-----------------------------4---3\2-1---4\3-2--1-2--||
D|-0-----------------------------5---4\3-2---4\3-2--2-0--||
A|-x-----------------------------5---4\3-2---2\1-0--2-x--||
E|-x-----------------------------3---2\1-0---0-0-0--0-x--||
   1 & 2 & 1 & 2 & 1 & 2 & 1 & 2 & 1 & 2 & 1 & 2 & 1 & 2
The Intro Riff Plays Twice Before Guitar II Joins in With the Cords.
Together they run through the sequence another 4 times. Then Guitar I Stops - And Guitar 
Quitely Strums The Verses.

Verse Cords: Guitar II
e|-1---------------x---------------0---------------0--------------||
B|-3---------------4---------------0---------------1--------------||
G|-2---------------4---------------0---------------2--------------||
D|-0---------------4---------------2---------------2--------------||
A|-x---------------2---------------2---------------0--------------||
E|-x---------------2---------------0---------------x--------------||
   1 & 2 & 3 & 4 & 1 & 2 & 3 & 4 & 1 & 2 & 3 & 4 & 1 & 2 & 3 & 4

These Cords Are Played Four Times Over. Then Guitar I Joins Back In On The Chorus.

Chorus Riff: Guitar 1
e|-----4-----4-----2-----2-----0-----0-----2-----2-||
B|---2-----2-----2-----2-----2-----2-----2-----2---||
G|-3-----3-----3-----3-----3-----3-----3-----3-----||
D|-------------------------------------------------||
A|-------------------------------------------------||
E|-------------------------------------------------||

This Riff Is Played Four Times While Guitar II plays:

Chorus Chords: Guitar II
e|-4-------2-------0-------2-------||
B|-4-------2-------0-------2-------||
G|-4-------2-------0-------2-------||
D|-6-------4-------2-------4-------||
A|-6-------4-------2-------4-------||
E|-4-------2-------0-------2-------||
   1 & 2 & 1 & 2 & 1 & 2 & 1 & 2 &

These Cords Are Also Played Four Times.

During The Bridge - Guitar 1 Plays This Riff - Guitar II does not play.

Bridge Riff: Guitar I
e|-------------------------------||
B|-----0-1-2-3-2-1-----0-1-2-1-0-||
G|-0-1-------------0-1-----------||
D|-------------------------------||
A|-------------------------------||
E|-------------------------------||

That Riff Is Played Twice.

Outro Riff: Guitar 1
e|---------------------------------||
B|---------------------------------||
G|---------------------------------||
D|---1---1---0---0---2---2---1---1-||
A|-2---2---2---2---2---2---2---2---||
E|---------------------------------||

This Riff ^ Is played 6 times. 4 times With Guitar II Playing The Cords Below. Then 
On its own - gradually becoming slower and slower untill the final note.

Outro Cords: Guitar II
e|-4-------5-------0-------4-------||
B|-4-------6-------0-------4-------||
G|-5-------7-------0-------5-------||
D|-6-------7-------2-------6-------||
A|-6-------5-------2-------6-------||
E|-4-------5-------0-------4-------||
   1 & 2 & 1 & 2 & 1 & 2 & 1 & 2 &

Song Order.

Intro.
Verse.
Chorus.
Verse.
Bridge.
Chorus.
Chorus.
Verse.
Chorus.
Outro.

I think thats it - Get on the Bands Website - We should have some of our songs up shortly!

www.myspace.com/thejoepirretexperience
Add It!

also email me for any comments - suggestions.

pirret@btinternet.com / thejoepirretexperience@hotmail.com

Cheers!! Peace Out - Rock On!!
Tap to rate this tab
# A B C D E F G H I J K L M N O P Q R S T U V W X Y Z